PrimaNota.ru - самый крупный в мире бесплатный архив песенных текстов, аккордов, табулатур и нот


Bernhoft - Streetlights - таба, видео

Регистрация Запомнить меня
Войти через:  Facebook Google Twitter Vk Yandex Mail.ru

Bernhoft - Streetlights - таба, видео

Печатать
Просмотров: 130
-------------------------------------------------------------------------------
                             Streetlights - Bernhoft
-------------------------------------------------------------------------------
Tabbed by: Ibanez314
E-mail: Ibanez314@yahoo.com

Tuning: Standard

e|---------------------------------------------------------------------------|
B|---------------------------------------------------------------------------|
G|---------------------------------------------------------------------------|
D|------------2----------------------------------------------7----9----------|
A|-------4--------------------------------2------------9---------------------|
E|---2------------------2-2----5----X----------------------------------------|

e|---------------------------------------------------------------------------|
B|---------------------------------------------------------------------------|
G|----------------4----------------------6---6----------------4---4----------|
D|----------7----------------------9----------------------6-----------4---2--|
A|----5----------------------8-----------------------4-----------------------|
E|---------------------------------------------------------------------------|

e|---------------------------------------------------------------------------|
B|---------------------------------------------------------------------------|
G|---------------------------------------------------------------------------|
D|------------2----4----2--------------------------------------7----9--------|
A|-------4-------------------4-----------------2----------9------------------|
E|--2-----------------------------2----5---x---------------------------------|

e|---------------------------------------------------------------------------|
B|---------------------------------------------------------------------------|
G|----------------4----------------------6---6----------------4---4----------|
D|----------7----------------------9----------------------6-----------4---2--|
A|----5----------------------8-----------------------4-----------------------|
E|---------------------------------------------------------------------------|


************************************

| /   slide up
| \   slide down
| h   hammer-on
| p   pull-off
| ~   vibrato
| +   harmonic
| x   Mute note
| b   Bend
| pb  Pre-bend
| br  Bend release
| pbr Pre-bend release
| brb Bend release bend

************************************
Добавлено: 06.08.2015
Другие материалы по этой песне:

Страница создана 28.06.2012
http://primanota.ru/bernhoft/streetlights-chords.htm
Привет, Гость.
Предлагаем пройти революционный курс по гитаре.
Подарок от PrimaNota.Ru, забирай!