PrimaNota.ru - самый крупный в мире бесплатный архив песенных текстов, аккордов, табулатур и нот


Berlin - Pleasure Victim - текст песни, бас-таба, видео

Регистрация Запомнить меня
Войти через:  Facebook Google Twitter Vk Yandex Mail.ru

Berlin - Pleasure Victim - текст песни, бас-таба, видео

Печатать
Просмотров: 166
Уроки эстрадного вокала в Санкт-Петербурге
Pleasure Victim
Berlin
Bass Tab
Bassist: John Crawford

132BPM, 4/4

Intro

[Two beat drum opening]

|------------|------------|------------|------------|
|------------|------------|------------|------------|
|-4---4---7--|-0---0---2--|-4---4---7--|-0---0---2--|
|------------|------------|------------|------------|

|------------|------------|---------------|--------------|
|------------|------------|---------------|--------6-----|
|-4---4---7--|-0---0---2--|--------6-6--6-|-----------6--|
|------------|------------|-4-4--4--------|-4-4--4-------|

Verse

||--------------|-------------|-------------|-------------|
||o-----------6-|-7-7-----6---|-----------6-|-7-7-----6---|
||o-4-4-----7---|-----------7-|-4-4-----7---|-----------7-|
||--------------|-------------|-------------|-------------|

|---------------|---------------|---------------|-----------------|| *Second time only
|---------------|---------------|-4-4--4-4-4--4-|-6-6--6-6-6--6*-o||
|-6-6--6-6-6--6-|-7-7--7-7-7--7-|---------------|----------------o||
|---------------|---------------|---------------|-----------------||

Chorus

|---------------|---------------|---------------|---------------|
|---------------|---------------|---------------|---------------|
|-4-4--4-4-4--4-|---------------|---------------|-4-4--4-4-4--4-|
|---------------|-5-5--5-5-5--5-|-7-7--7-7-7--7-|---------------|

|---------------|---------------|---------------|--------------|
|---------------|---------------|-4-4--4-4-4--4-|-6-6--6-4-----|
|-4-4--4-4-4--4-|-7-7--7-7-7--7-|---------------|-----------7--|
|---------------|---------------|---------------|--------------|

Verse

||--------------|-------------|-------------|--------------|
||o-----------6-|-7-7-----6---|-----------6-|-7-7-----6----|
||o-4-4-----7---|-----------7-|-4-4-----7---|-----------7--|
||--------------|-------------|-------------|--------------|

|---------------|---------------|---------------|-----------------|| *Second time only
|---------------|---------------|-4-4--4-4-4--4-|-6-6--6-6-6--6*-o||
|-6-6--6-6-6--6-|-7-7--7-7-7--7-|---------------|----------------o||
|---------------|---------------|---------------|-----------------||

Chorus

|---------------|---------------|---------------|---------------|
|---------------|---------------|---------------|---------------|
|-4-4--4-4-4--4-|---------------|---------------|-4-4--4-4-4--4-|
|---------------|-5-5--5-5-5--5-|-7-7--7-7-7--7-|---------------|

|---------------|---------------|--------------|---------------|
|---------------|---------------|-4-4--4-4---4-|---------------|
|-4-4--4-4-4--4-|-7-7--7-7-7--7-|--------------|-4-4--4-4-4--4-|
|---------------|---------------|--------------|---------------|

Interlude

|---------------|---------------|---------------|---------------|
|---------------|---------------|---------------|---------------|
|-4-4--4-4-4--4-|---------------|---------------|-4-4--4-4-4--4-|
|---------------|-5-5--5-5-5--5-|-7-7--7-7-7--7-|---------------|

|---------------|---------------|---------------|---------------|
|---------------|---------------|-4-4--4-4-4--4-|-6-6--6-6-6--6-|
|-4-4--4-4-4--4-|-7-7--7-7-7--7-|---------------|---------------|
|---------------|---------------|---------------|---------------|

|---------------|
|-6---6-7-6-----|
|-----------7\--|
|---------------|

|------------|------------|------------|---------------|
|------------|------------|------------|-----6-7-6-----|
|-4---4---7--|-0---0---2--|-4---4---7--|-0---------7-6-|
|------------|------------|------------|---------------|

|------------|------------|---------------|--------------|
|------------|------------|---------------|--------6-----|
|-4---4---7--|-0---0---2--|--------6-6--6-|-----------6--|
|------------|------------|-4-4--4--------|-4-4--4-------|

Verse

|-------------|-------------|-------------|-------------|
|-----------6-|-7-7-----6---|-----------6-|-7-7-----6---|
|-4-4-----7---|-----------7-|-4-4-----7---|-----------7-|
|-------------|-------------|-------------|-------------|

|---------------|---------------|---------------|---------------|
|---------------|---------------|-4-4--4-4-4--4-|-6-6--6-6-6--6-|
|-6-6--6-6-6--6-|-7-7--7-7-7--7-|---------------|---------------|
|---------------|---------------|---------------|---------------|

Chorus

|---------------|---------------|---------------|---------------|
|---------------|---------------|---------------|---------------|
|-4-4--4-4-4--4-|---------------|---------------|-4-4--4-4-4--4-|
|---------------|-5-5--5-5-5--5-|-7-7--7-7-7--7-|---------------|

|---------------|---------------|--------------|---------------|
|---------------|---------------|-4-4--4-4---4-|---------------|
|-4-4--4-4-4--4-|-7-7--7-7-7--7-|--------------|-4-4--4-4-4--4-|
|---------------|---------------|--------------|---------------|

|---------------|---------------|---------------|---------------|
|---------------|---------------|---------------|---------------|
|-4-4--4-4-4--4-|---------------|---------------|-4-4--4-4-4--4-|
|---------------|-5-5--5-5-5--5-|-7-7--7-7-7--7-|---------------|

|---------------|---------------|--------------|----------------|
|---------------|---------------|-4-4--4-4---4-|-6-6--6-7-6-----|
|-4-4--4-4-4--4-|-7-7--7-7-7--7-|--------------|------------7-6-|
|---------------|---------------|--------------|----------------|

Ending/Fade out

|---------------|---------------|---------------|---------------|
|---------------|---------------|---------------|---------------|
|-4-4--4-4-4--4-|---------------|---------------|-4-4--4-4-4--4-|
|---------------|-5-5--5-5-5--5-|-7-7--7-7-7--7-|---------------|

|---------------|---------------|--------------|---------------|
|---------------|---------------|-4-4--4-4---4-|---------------|
|-4-4--4-4-4--4-|-7-7--7-7-7--7-|--------------|-4-4--4-4-4--4-|
|---------------|---------------|--------------|---------------|

|---------------|---------------|---------------|---------------|
|---------------|---------------|---------------|---------------|
|-4-4--4-4-4--4-|---------------|---------------|-4-4--4-4-4--4-|
|---------------|-5-5--5-5-5--5-|-7-7--7-7-7--7-|---------------|

|---------------|---------------|--------------|----------------|
|---------------|---------------|-4-4--4-4---4-|-6-6--6-7-6-----|
|-4-4--4-4-4--4-|-7-7--7-7-7--7-|--------------|------------7-6-|
|---------------|---------------|--------------|----------------|

|---------------|---------------|--------|--------|
|---------------|---------------|--------|--------|
|-4-4--4-4-4--4-|---------------|--------|--------|
|---------------|-5-5--5-5-5--5-|--------|--------|
                                       3x
||---------|--------|--------|---------||
||o--------|--------|--------|--------o||
||o--------|--------|--------|--------o||
||---------|--------|--------|---------||
Добавлено: 23.02.2012
Другие материалы по этой песне:
  • Аккорды и текст

Страница создана 23.02.2012
http://primanota.ru/berlin/pleasure-victim-chords.htm
Привет, Гость.
Предлагаем пройти революционный курс по гитаре.
Подарок от PrimaNota.Ru, забирай!