PrimaNota.ru - самый крупный в мире бесплатный архив песенных текстов, аккордов, табулатур и нот


Berkeley - One Way Out - таба, видео

Регистрация Запомнить меня
Войти через:  Facebook Google Twitter Vk Yandex Mail.ru

Berkeley - One Way Out - таба, видео

Печатать
Просмотров: 102
Уроки эстрадного вокала в Санкт-Петербурге
Artist: Berkeley
Song: One Way Out
Album: Hope, Prayers and Bubblegum
Tabbed by: Paul Fanning
Date: 27/05/04
Email: bytheway@eircom.net
 
drop d tuning (dadgbe)
 
Intro: with tremolo and slight delay or reverb
 
e ---5------------8-------10---------------
b ---6------------6-------8----------------
g ---7------------7-------9----------------
d -----------------------------------------
a -----------------------------------------
D -----------------------------------------
 
Verse 1:
 
e ---5------------8-------10---------------
b ---6------------6-------8----------------
g ---7------------7-------9----------------
d -----------------------------------------
a -----------------------------------------
D -----------------------------------------
 

Chorus:
 
i will...              
e ---------------------------------------------
b ---------------------------------------------
g ---------------------------------------------
d ---8----------------3------0-----------------
a ---8----------------3------0-----------------
D ---8----------------3------0-----------------    x4
 

e ------------------------------------------
b ------------------------------------------
g ------------------------------------------
d ---5-------------3------0-----------------
a ---5-------------3------0-----------------
D ---5-------------3------0-----------------
 

Verse 2: (basically picking of the intro chords)
 
e ---------------------8-----8/10--10---------
b ---6--5--6-----5--6--6-----6/8---8----------
g ------------7-----------7------------9------
d --------------------------------------------
a --------------------------------------------
D --------------------------------------------
 

Chorus
 
e ---------------------------------------------
b ---------------------------------------------
g ---------------------------------------------
d ---8----------------3------0-----------------
a ---8----------------3------0-----------------
D ---8----------------3------0-----------------    x4
 

e ------------------------------------------
b ------------------------------------------
g ------------------------------------------
d ---5-------------3------0-----------------
a ---5-------------3------0-----------------
D ---5-------------3------0-----------------
 
Verse 3:
 
e ---------------------8-----8/10--10---------
b ---6--5--6-----5--6--6-----6/8---8----------
g ------------7-----------7------------9------
d --------------------------------------------
a --------------------------------------------
D --------------------------------------------
 

Chorus
 
e ---------------------------------------------
b ---------------------------------------------
g ---------------------------------------------
d ---8----------------3------0-----------------
a ---8----------------3------0-----------------
D ---8----------------3------0-----------------    x4
 

e ------------------------------------------
b ------------------------------------------
g ------------------------------------------
d ---5-------------3------0-----------------
a ---5-------------3------0-----------------
D ---5-------------3------0-----------------
 
then
 
    Dm
e ---5----------------
b ---6----------------
g ---7----------------
d ---7----------------
a ---5----------------
D --------------------
 
outro:
 
    G                Bb      C
e ----------------------------------------------
b ----------------------------------------------
g ----------------------------------------------
d ---3----------------8------10-----------------
a ---3----------------8------10-----------------
D ---3----------------8------10-----------------
 
e ----------------------------------------------
b ----------------------------------------------
g ----------------------------------------------
d ---5--5h7p5--5---1----------------------------
a ---5---------5---1----------------------------
D ---5---------5---1----------------------------
 

the solo seems to be improv around the 5th and 7th frets ending with
 
e----------------
b----------------
g---9^11--10^12--
d----------------
a----------------
D----------------

     
Добавлено: 01.09.2013
Другие материалы по этой песне:
  • Аккорды и текст

Страница создана 20.08.2013
http://primanota.ru/berkeley/one-way-out-chords.htm
Привет, Гость.
Предлагаем пройти революционный курс по гитаре.
Подарок от PrimaNota.Ru, забирай!