PrimaNota.ru - самый крупный в мире бесплатный архив песенных текстов, аккордов, табулатур и нот


Ber-linn - Дaшa - аккорды и текст

Регистрация Запомнить меня
Войти через:  Facebook Google Twitter Vk Yandex Mail.ru

Ber-linn - Дaшa - аккорды и текст

Печатать
Просмотров: 162
Дaшa
Ber-linn
Official version
Вcтyплeниe (x2):
pитм-гитapa
     A        F#m         D        E           A        F#m         D        E
[E--------------------------------------------------------------------------------
B--------------------------------------------------------------------------------
G--6--------2----------7--------9----------6--------2----------7--------9--------
D--7--------4----------7--------9----------7--------4----------7--------9--------
A--7--------4----------5--------7----------7--------4----------5--------7--------
E--5--------2----------5--------7----------5--------2----------5--------7--------]
coлo
[E--5-----5-----7-----7-------5-----5-----4-----4-------5-----5-----9-----9-------10-----10-----12-----10--9--
B-----5-----5-----5-----5-------5-----5-----5-----5-------5-----5-----7-----7--------7------7------9---------
G------------------------------------------------------------------------------------------------------------
D------------------------------------------------------------------------------------------------------------
A------------------------------------------------------------------------------------------------------------
E------------------------------------------------------------------------------------------------------------]
Кyплeт:
     A          F#m          D
[E---------------------------------------------------------------------------
B---------------------------------------------------------------------------
G--6------------------2--2-2--2-2--2--2-2--2-2----7--7-7--7-7--7--7-7--7-7--
D--7------------------4--4-4--4-4--4--4-4--4-4----7--7-7--7-7--7--7-7--7-7--
A--7------------------4--4-4--4-4--4--4-4--4-4----5--5-5--5-5--5--5-5--5-5--
E--5------------------2--2-2--2-2--2--2-2--2-2------------------------------
  A            E               A                   F#m
------------------------------------------------------------------------------------
------------------------------------------------------------------------------------
---------------9--9-9--9-9--------------------------------2--2-2--2-2--2--2-2--2-2--
--7--7-7--7-7--9--9-9--9-9----7--7-7--7-7--7--7-7--7-7----4--4-4--4-4--4--4-4--4-4--
--7--7-7--7-7--7--7-7--7-7----7--7-7--7-7--7--7-7--7-7----4--4-4--4-4--4--4-4--4-4--
--5--5-5--5-5-----------------5--5-5--5-5--5--5-5--5-5----2--2-2--2-2--2--2-2--2-2--
  D                   A            E               D
------------------------------------------------------------------------------------
------------------------------------------------------------------------------------
--7--7-7--7-7--7--7-7--7-7-----------------9--9-9--9-9----7--7-7--7-7--7--7-7--7-7--
--7--7-7--7-7--7--7-7--7-7----7--7-7--7-7--9--9-9--9-9----7--7-7--7-7--7--7-7--7-7--
--5--5-5--5-5--5--5-5--5-5----7--7-7--7-7--7--7-7--7-7----5--5-5--5-5--5--5-5--5-5--
------------------------------5--5-5--5-5-------------------------------------------
  E
-------------------
-------------------
--9----------------
--9----------------
--7----------------
--7----------------]
Пpипeв (x2):
     A          D   E         A          D   E         A          D   E         D          E
[E------------------------------------------------------------------------------------------------
B--2---2---2---------------2---2---2---------------2---2---2-------------------------------------
G--2---2---2--7---9---9----2---2---2--7---9---9----2---2---2--7---9---9----7---7---7--9---9---9--
D--2---2---2--7---9---9----2---2---2--7---9---9----2---2---2--7---9---9----7---7---7--9---9---9--
A--0---4---0--5---7---7----0---4---0--5---7---7----0---4---0--5---7---7----5---5---5--7---7---7--
E------------------------------------------------------------------------------------------------]
Добавлено: 13.09.2013
Другие материалы по этой песне:
  • Аккорды и текст

Страница создана 13.09.2013
http://primanota.ru/ber-linn/dasha-2-chords.htm
Привет, Гость.
Предлагаем пройти революционный курс по гитаре.
Подарок от PrimaNota.Ru, забирай!