PrimaNota.ru - самый крупный в мире бесплатный архив песенных текстов, аккордов, табулатур и нот


Beowulf - Time To Die - таба, видео

Регистрация Запомнить меня
Войти через:  Facebook Google Twitter Vk Yandex Mail.ru

Beowulf - Time To Die - таба, видео

Печатать
Просмотров: 153
EMail: american_dreadnought@hotmail.com

Intro
E|------------------------------------------------------------||
B|------------------------------------------------------------||
G|------------------------------------------------------------||
D|-------5------7------5--------------5------5/7------5------9||
A|-------3------5------3------9-------3------3/5------3------9||
E|--0000---0000---0000---0000-7--0000---0000-----0000---0000-7||
PM  ....   ....   ....   ....    ....   ....     ....   ....

Riff 1
E|-------------------------------------||
B|-------------------------------------||
G|-------------------------------------||
D|-9-9-10-8---5-5-3-(hold)-------------||
A|-7-7--8-6---3-3-1--------------------||
E|-------------------------0000--------||
PM . .                     ....

Riff 2
E|------------------||
B|------------------||
G|------------------||
D|------------------||
A|------------------||
E|-0-0-11-13-(x3)---||

Riff 2 - addition I
E|------------------||
B|------------------||
G|------------------||
D|------------------||
A|------------------||
E|-13-13-11---------||

Riff 2 - addition II
E|------------------||
B|------------------||
G|------------------||
D|------------------||
A|------------------||
E|-13-11-11---------||

Riff 3 - Part 1
E|--------------------------------------------------------||
B|--------------------------------------------------------||
G|--------------------------------------------------------||
D|-9-9-10-9---9-9--7-----9-9-10-10-12-12-14-14/9----------||
A|-7-7--8-7---7-7--5-----7-7--8--8-10-10-12-12/7----------||
E|--------------------------------------------------------||

Riff 3 - Part 2
E|--------------------------------------------------------||
B|--------------------------------------------------------||
G|--------------------------------------------------------||
D|-9-9-10-9---7-7--9-----9-9-10-10-12-12-7-7/9------------||
A|-7-7--8-7---5-5--7-----7-7--8--8-10-10-5-5/7------------||
E|--------------------------------------------------------||

Riff 4
E|------------------||
B|------------------||
G|------------------||
D|------------------||
A|-9~-12~-7~-7~-----||
E|-7~-10~-5~-5~-----||

Riff 5
E|------------------||
B|------------------||
G|------------------||
D|-9-9-9------------||
A|-9-9-9-9-9-9-7-7-7||
E|-7-7-7-7-7-7-5-5-5||

Riff 5 - Ending I/Ending II
E|-----------------------||
B|-----------------------||
G|-----------------------||
D|-Ending I---Ending II--||
A|-(9-9-10)---(7)(hold)--||
E|-(7-7--8)---(5)(hold)--||

Riff 6a
E|------------------||
B|------------------||
G|------------------||
D|------------------||
A|-------------3h4--||
E|-0-0-3h4-0-0------||

Riff 6b
E|------------------||
B|------------------||
G|------------------||
D|------------------||
A|-------------4p3--||
E|-0-0-4p3-0-0------||

Solo
E|-------------------------------------------------------------------||
B|-------------------------------------------------------------------||
G|-------------------------------------------------------------------||
D|-5-7--------------5-7-----------5----------------------------------||
A|-3-5-7--7-7--5-3--3-5-7--7-7--5-3--3-5-------------3-5---------3---||
E|-----5--5-5--3-1------5--5-5--3--------5---5-5-3-1-----5---5-5---3-||

Riff 7
E|-------------------------------------||
B|-------------------------------------||
G|-------------------------------------||
D|-----------------------------------5-||
A|------5-5------7-7-------7---7-5-5-3-||
E|-0000-3-3-0000-5-5-0000005---5-3-3---||
PM ....     ....     .......

Outro
E|--------------------------------------||
B|--------------------------------------||
G|--------------------------------------||
D|---------------5---------------5------||
A|-5--5-5-7--7-7/3-(x3)--5---7---3---3-0||
E|-3--3-3-5--5-5---------3---5-------1-0||

Intro
Riff 1 x2
Riff 3(All)
Riff 3 - Part 1
Riff 2 - Addition I
Riff 2 - Addition II
Riff 2 - Addition II
Riff 4 x5
Riff 3(All)
Riff 4 x5
Riff 5 - Ending I
Riff 5 - Ending II
Riff 6a x6
Riff 6b x3
Riff 6a x1
Riff 6b x6
Riff 5 - Ending I x2
Riff 5 - Ending II x2
Solo
Riff 7 x3
Outro
===========================================================================
Добавлено: 11.03.2012
Другие материалы по этой песне:
  • Аккорды и текст

Страница создана 11.03.2012
http://primanota.ru/beowulf/time-to-die-chords.htm
Привет, Гость.
Предлагаем пройти революционный курс по гитаре.
Подарок от PrimaNota.Ru, забирай!