PrimaNota.ru - самый крупный в мире бесплатный архив песенных текстов, аккордов, табулатур и нот


Beny Moré - Fiebre De Tí - бас-таба, видео

Регистрация Запомнить меня
Войти через:  Facebook Google Twitter Vk Yandex Mail.ru

Beny Moré - Fiebre De Tí - бас-таба, видео

Печатать
Просмотров: 53
parte 1

  00:27
G |---------------||------------------||------------------||-----------|
D |--------10-----||---9-----9--------||------9-9------9--||-----------|
A |----9-------9--||------9-----9---6-||--7---------------||-------7---|
E |---------------||------------------||------------7-----||-----------|


 |-----------7--10--||---9--9--------9-||---------9-----||--9--------9--|
 |-------9----------||------------9----||----7----------||--------------|
 |----7-------------||---------7-------||---------------||-------7------|
 |------------------||-----------------||---------------||--------------|


                        Parte 2
 |-----------9------||---------------||-----------------||--------------|
 |----7-------------||--7-----7---7--||--7---9----------||------9---9---|
 |---------------7--||---------------||--------------9--||--7-----------|
 |------------------||---------------||----------7------||--------------|


 |------------------||-------------||--------------||----------------|
 |----------9-------||--7---9------||----------9---||--7-----9-------|
 |-----7---------7--||-------------||----9---------||-----7-----5----|
 |------------------||----------7--||--------------||----------------|


 |--------------||----7----7--------||----7-----7-------||----7--7--7---|
 |--------------||------7------7--7-||------7-----10--7-||-5------------|
 |--7-----7-----||--5---------------||-5----------------||-----5------5-|
 |--------------||------------------||------------------||--------------|


 |---7----7--------||-------------------||-----------------||---------|
 |5----------7-----||------9------9---9-||-----9-----9-----||------9--|
 |------5-------5--||---9---------------||--9----------9---||-7--7----|
 |-----------------||----------7--------||--------7--------||-------7-|


 |-------||------------------||------------------||-------------------|
 |-------||--7----7------5---||--7--10--9--------||-----9--9----------|
 |---7---||----------7-------||-------------9--6-||--7-------------9--|
 |-------||------------------||------------------||------------7------|


 |---------------||-------------||-------------||-------------|
 |-------9---5---||--9------10--||--9---9---9--||---7-----7---|
 |----7--------7-||------9------||-------------||------9------|
 |---------------||-------------||-------------||------------|


 |------|
 |------|
 |--7---|
 |------|


Se repite partte 2

luego les paso el intro

un tributo a un gran maestro....
Добавлено: 01.05.2016
Другие материалы по этой песне:
  • Аккорды и текст

Страница создана 01.05.2016
http://primanota.ru/beny-more/fiebre-de-ti-chords.htm
Привет, Гость.
Предлагаем пройти революционный курс по гитаре.
Подарок от PrimaNota.Ru, забирай!