PrimaNota.ru - самый крупный в мире бесплатный архив песенных текстов, аккордов, табулатур и нот


Benton Falls - There's No "F" In Team - текст песни, таба, видео

Регистрация Запомнить меня
Войти через:  Facebook Google Twitter Vk Yandex Mail.ru

Benton Falls - There's No "F" In Team - текст песни, таба, видео

Печатать
Просмотров: 85
Band : Benton Falls
Song : There's No 'F' In Team
Album: Guilt Beats Hate

find out more about this band on  : www.deepelm.com

Tabbed by bounav@free.fr

Last Update : 19-may-2004

The Introduction took me hours to figure out... Enjoy.

================================================ TAB>======

[Intro] (clean)
 e|------------------------------------------|
 B|---------0-------2h3p2--------------------|
 G|-----0-----0---------------2--2h4--4p2p0--|
 D|---4---4-------4---------4---4-----4-----4|
 A|-2-----------0----------------------------|
 E|-----------------------3---------3--------|

 e|------------------------------------------|
 B|------------3-2h3p2--------3-2--------3-2-|
 G|--------4------------4---4------4---4-----|
 D|----4-----4------------4----------4-------|
 A|--2---2-----------------------------------|
 E|0-----------------------------------------|

 e|-------------0----------------------------| |
 B|---------0------2h3p2-2h3-----------------| |
 G|-----0-----0--------------2-2h4---4p2p0---| |
 D|---4---4--------------------------4-----4-| |
 A|-2----------------------------------------| |
 E|--------------------------------3---------| |
                                               |
 e|------------------------------------------| |
 B|------------3-2h3p2--------3-2--------3-2-| |
 G|--------4------------4---4------4---4-----| |
 D|----4-----4------------4----------4-------| |
 A|--2---2-----------------------------------| |
 E|0-----------------------------------------| |3x

 e|------------|------------|------------|------------| |
 B|------------|------------|------------|------------| |
 G|-4-4-4-4-4-4|-2-2-2-2-2-2|------------|------------| |
 D|-4-4-4-4-4-4|-2-2-2-2-2-2|-4-4-4-4-4-4|-5-5-5-5-5-5| |
 A|-2-2-2-2-2-2|-0-0-0-0-0-0|-4-4-4-4-4-4|-5-5-5-5-5-5| |
 E|------------|------------|-2-2-2-2-2-2|-3-3-3-3-3-3| |
 PM___________________________________________________  |
                                                        |
 e|-------------------|                                 |
 B|-6--6--X-666--6--Xx|    Listen to the song           |
 G|-5--5--X-555--5--xx|   to figure out the end         |
 D|-3--3--x-333--3--xx|    of the 4th reapeat           |
 A|-3--3--x-333--3--xx|                                 |
 E|-------------------|                                 |4x (dist on)

[Verse] (distortion on)
 e|-----------------------------------------------------|
 B|-----------------------------------------------------|
 G|-7-7-7/5.../12.../10.../17.../14.../21-21-21-21-21-21|
 D|-----------------------------------------------------|
 A|-5-5-5/3.../10.../8..../15.../12.../19-19-19-19-19-19|
 E|-----------------------------------------------------|

 e|-----------------------------------------------|
 B|-----------------------------------------------|
 G|/101010/9.../14.../12.../10.../9.../14.../12...|
 D|-----------------------------------------------|
 A|/8-8-8-/7.../12.../10.../8..../7.../12.../10...|
 E|-----------------------------------------------|

 e|-----------------------------------------------------|
 B|-----------------------------------------------------|
 G|/7-7-7/5.../12.../10.../17.../14.../21-21-21-21-21-21|
 D|-----------------------------------------------------|
 A|/5-5-5/3.../10.../8..../15.../12.../19-19-19-19-19-19|
 E|-----------------------------------------------------|

 e|-----------------------------------------------------|
 B|-----------------------------------------------------|
 G|/10../9.../10../9.../10../9.../10../9.../1010101010--|
 D|-----------------------------------------------------|
 A|/8.../7.../8.../7.../8.../7.../8.../7.../8-8-8-8-8---|
 E|-----------------------------------------------------|

 e|-----------------------------------------------------|
 B|-----------------------------------------------------|
 G|-7-7-7/5.../12.../10.../17.../14.../21-21-21-21-21-21|
 D|-----------------------------------------------------|
 A|-5-5-5/3.../10.../8..../15.../12.../19-19-19-19-19-19|
 E|-----------------------------------------------------|

 e|-----------------------------------------------|
 B|-----------------------------------------------|
 G|/101010/9.../14.../12.../10.../9.../14.../12...|
 D|-----------------------------------------------|
 A|/8-8-8-/7.../12.../10.../8..../7.../12.../10...|
 E|-----------------------------------------------|

 e|--------------------------------------------|
 B|--------------------------------------------|
 G|/7-7-7/5.../12.../10.../17-17-17-17-17-17---|
 D|--------------------------------------------|
 A|/5-5-5/3.../10.../8..../15-15-15-15-15-15---|
 E|--------------------------------------------|

[Chorus] (clean)
e|------------|
B|5-5-6-6-----|
G|*-------5-5*|
D|*----------*|
A|------------|
E|------------|x22 !

[Interlude] (time flies...) (clean)
e|------------------------|
B|----3-----3-----3-----3-|
G|--5-----5-----5-----5--*|
D|3-----3-----3-----3----*|
A|------------------------|
E|------------------------|x4

e|------------------------------|
B|5555-xx-6666-xx-3333-xx-------|
G|5555-xx-5555-xx-5555-xx-5/7\5*|
D|3333-xx-3333-xx-3333-xx------*|
A|------------------------3/5\3-|
E|------------------------------|x2 (clean)

e|------------------------------|
B|5555-xx-6666-xx-3333-xx-------|
G|5555-xx-5555-xx-5555-xx-5/7\5*|
D|3333-xx-3333-xx-3333-xx------*|
A|------------------------3/5\3-|
E|------------------------------|x5 (distortion on)

Play [Verse]

Play [Chorus]

[Outro] (distortion on)
e|------------------------------|------------------------------|
B|13../17../15..----------------|13../17../15..----------------|
G|--------------/14../12../9/10.|--------------/14../12../7/9..|
D|10../14../12..----------------|10../14../12..----------------|
A|--------------/12../10../7/8..|--------------/12../10../5/7..|
E|------------------------------|------------------------------|

e|------------------------------|--------------------------------|
B|13../17../15..----------------|13../17../15..------------------|
G|--------------/14../12../9/10.|--------------/14../12../7/9/7/9|
D|10../14../12..----------------|10../14../12..------------------|
A|--------------/12../10../7/8..|--------------/12../10../5/7/5/9|
E|------------------------------|--------------------------------|

e|------------------------------|------------------------------|
B|13../17../15..----------------|13../17../15..----------------|
G|--------------/14../12../9/10.|--------------/14../12../7/9..|
D|10../14../12..----------------|10../14../12..----------------|
A|--------------/12../10../7/8..|--------------/12../10../5/7..|
E|------------------------------|------------------------------|

e|------------------------------|--------------------------------|
B|13../17../15..----------------|13../17../15..------------------|
G|--------------/14../12../9/10.|--------------/14../12../7-/9-/5|
D|10../14../12..----------------|10../14../12..------------------|
A|--------------/12../10../7/8..|--------------/12../10../5-/7-/3|
E|------------------------------|--------------------------------|


You now know every parts... Have fun.

     
Добавлено: 30.06.2013
Вам также может быть интересно:
Другие материалы по этой песне:
  • Аккорды и текст

Страница создана 12.06.2012
http://primanota.ru/benton-falls/theres-no-f-in-team-chords.htm
Привет, Гость.
Предлагаем пройти революционный курс по гитаре.
Подарок от PrimaNota.Ru, забирай!