PrimaNota.ru - самый крупный в мире бесплатный архив песенных текстов, аккордов, табулатур и нот


Benton Falls - Swimming With You - текст песни, таба, видео

Регистрация Запомнить меня
Войти через:  Facebook Google Twitter Vk Yandex Mail.ru

Benton Falls - Swimming With You - текст песни, таба, видео

Печатать
Просмотров: 97
Benton Falls - Swimming With You

(Album: Fighting Starlight)



Verse 1:
Guit.1
e|----------------|----------------|
B|----------------|----------------|
G|*--2-----2-----2|--2-----2-----2-|
D|*----0-----0----|----0-----0-----|
A|-2-----2-----2--|------2-----2---|
E|----------------|2---------------|

e|----------------|----------------|
B|----------------|----------------|
G|--2-----2-----2-|--2-----2-----2*|
D|----0-----0-----|----0-----0----*|
A|------2-----2---|------2-----2---|
E|3---------------|3---------------|

Guit.2
e|-----------------------------------------------------|
B|-------------------------------------3-------2-------|
G|*------2----2------2-------2h4-----------4-------4--*|
D|*2h4---------2h4------2h4----------4-------4-------4*|
A|-----------------------------------------------------|
E|-----------------------------------------------------|

Chorus 1:
Guit.1
e|------------------|------------------|
B|------------------|------------------|
G|*-------7/9xx7/9--|-----------------*|
D|*7/9-x9----Xx-----|7/9-x9-xx55555555*|
A|-7/9-x9-5/7xx5/7--|7/9-x9-xx55555555-|
E|-5/7-x7-----------|5/7-x7-xx33333333-| x4
                                ______PM
Guit.2
e|----------------------------2------2----|
B|----xx2------xx2h3p2------xx2----2---2x-|
G|*---xx2------xx-----2--2/4xx---4------x*|
D|*2h4xx----2h4xx-----------xx----------x*|
A|----------------------------------------|
E|----------------------------------------|

Verse 2:
Guit.1
e|----------------|
B|-3....----------|
G|-2....----------|
D|-0....----------|
A|-2....----------|
E|----------------|

Guit.2
e|--------------|--------------|
B|---2----------|--------------|
G|*----4-4-2h4--|---4-2-2---2-*|
D|*4------4-----|-2------2h4--*|
A|--------------|--------------|
E|--------------|--------------|

Chorus 2:
Guit.1
e|------------------|------------------|
B|------------------|------------------|
G|*-------x7/9xx7/9-|-----------------*|
D|*7/9-x9-----Xx----|7/9-x9-x7-x5-----*|
A|-7/9-x9-x5/7xx5/7-|7/9-x9-x7-x5------|
E|-5/7-x7-----------|5/7-x7-x5-x3------| x4
                                ______PM
Guit.2
e|----------------------------2----2------|
B|----xx2------xx2h3p2------xx2---2---2---|
G|*---xx2------xx-----2--2/4xx---4-------*|
D|*2h4xx----2h4xx-----------xx-----------*|
A|----------------------------------------|
E|----------------------------------------|

Interlude:
Guit.1
e|----------------|
B|----------------|
G|*-0--0--0--4h6-*|
D|*4--4--4--4----*|      [...]            [...]
A|----------------|
E|----------------|

Guit.2
e|----------------|------------------|-------------------|
B|----------------|--------5---------|-----------5-------|
G|*----4---4h6---*|*----4------4h7^-*|*-------4-----4h7^*|
D|*4-------------*|*4---------------*|*4h5p4------------*|
A|----------------|------------------|-------------------|
E|----------------|------------------|-------------------|

e|----------------------|-------------------|
B|---------------5h7p5--|----------5--------|
G|*-------4--4h6-------*|*------4-----4h7^-*|
D|*4h5p4---------------*|*4h5p44--4--4-----*|
A|----------------------|-------------------|
E|----------------------|-------------------|

Guit.1
e|----------------|
B|-3^-------3-----|
G|*4^-------4----*|
D|*5^-------5----*|
A|-5^-------5-----|
E|-3^-------3-----| x4

Guit.2
e|---------0-------------0------------0----------------|
B|-----------0---------2---2------------0------------2-|
G|...5~------------------------------------------------|
D|---------------4~--------------4~------------4~------|
A|-----------------------------------------------------|
E|-----------------------------------------------------|


Play verse 1 two times then end on : 32020x

================================================ Lyrics ===

i got to the car.
drove far.
decided to stay away.
with my foot on the gas.
drove past.
all of the shit i needed to say.

i got to the car.
drove far.
decided to stay away.
with my foot on the gas.
drove past.
all of the shit i needed to say.

i've waited 'till now for the right time.
i've waited 'till now for the right time to tell.
i've waited 'till now for the right time.
i've waited 'till now to open up to you.

and i can't breathe.

swimming with you is the hardest.
everything you do is so true.
swimming with you is the hardest thing.
and i won't hold my breath.
and i won't hold my breath when i'm with you

================================================== 
Добавлено: 18.10.2013
Другие материалы по этой песне:
  • Аккорды и текст

Страница создана 26.07.2012
http://primanota.ru/benton-falls/swimming-with-you-chords.htm
Привет, Гость.
Предлагаем пройти революционный курс по гитаре.
Подарок от PrimaNota.Ru, забирай!