PrimaNota.ru - самый крупный в мире бесплатный архив песенных текстов, аккордов, табулатур и нот


Bent Fabricius-Bjerre - Alley Cat - бас-таба, видео

Регистрация Запомнить меня
Войти через:  Facebook Google Twitter Vk Yandex Mail.ru

Bent Fabricius-Bjerre - Alley Cat - бас-таба, видео

Печатать
Просмотров: 40
-------------------------------------------------------------------------------
                             Alley Cat - Bent Fabric
-------------------------------------------------------------------------------
Tabbed by: CorporalCrunch
Tuning: Standard


Part 1:
G|----------------------------------|-----------------------------------|
D|--------------------2-1-0---3-5---|-0-------0-------0-----------3-5---|
A|-3-------3-------3----------------|-----------------------2-3---------|
E|-----3-------3------------------3-|-----3-------3-------3-----------3-|

G|----------------------------------|-----------------------------------|
D|--------------------2-1-0---3-5---|-0-------0-------0-----------3-5---|
A|-3-------3-------3----------------|-----------------------2-3-------3-|
E|-----3-------3------------------3-|-----3-------3-------3-------------|


Bridge:
G|--------------------|-------------------|------------------|---------0-2-4-0-|
D|-2-3-------3--3-2-0-|---------------2---|--0-------0-------|-0-2-3-4---------|
A|-------3------------|-3-------3---3---3-|------0-------0-3-|-----------------|
E|--------------------|-----3-------------|------------------|-----------------|


Part 2:
G|----------------------------------|-----------------------------------|
D|--------------------2-1-0---3-5---|-0-------0-------0-----------3-5---|
A|-3-------3-------3----------------|-----------------------2-3---------|
E|-----3-------3------------------3-|-----3-------3-------3-----------3-|

G|---------------------------------------|-----------------------------------------|
D|-------------------------2-1-0---3-5---|-0---0-----0---0-----0---0---------3-5---|
A|-0-3------0-3-------0-3----------------|-----------------------------2-3-------3-|
E|-------3--------3--------------------3-|-------3---------3---------3-------------|

G|----------------------------------|-----------------------------------|
D|--------------------2-1-0---3-5---|-0-------0-------0-----------3-5---|
A|-3-------3-------3----------------|-----------------------2-3---------|
E|-----3-------3------------------3-|-----3-------3-------3-----------3-|


Bridge 2:
G|-------------------------|-------------------|-----2-----------|---------0-2-4-0-|
D|-2-3-3------2-3-3--3-2-0-|------2--5---5-2---|-0-4-----0-------|-0-2-3-4---------|
A|--------3-3--------------|-3-3-------3-----3-|-------0---3-2-0-|-----------------|
E|-------------------------|-------------------|-----------------|-----------------|


Part 3:
G|----------------------------------------|-----------------------------------------|
D|--------------------------2-1-0---3-5---|-0---0-----0---0-----0---0---------3-5---|
A|-0-3-------0-3-------0-3----------------|-----------------------------2-3-------3-|
E|-------3---------3--------------------3-|-------3---------3---------3-------------|


Conclusion:
G|--------------4---|------------------|
D|-2--3-3-4-4-5---7-|-0-4-5------3-5---|
A|------------------|---------3------3-|
E|------------------|-------3----------|
===============================================================================
Добавлено: 02.05.2016
Другие материалы по этой песне:
  • Аккорды и текст

Страница создана 02.05.2016
http://primanota.ru/bent-fabricius-bjerre-2/alley-cat-chords.htm
Привет, Гость.
Предлагаем пройти революционный курс по гитаре.
Подарок от PrimaNota.Ru, забирай!