PrimaNota.ru - самый крупный в мире бесплатный архив песенных текстов, аккордов, табулатур и нот


The Bennies - Mushroom Tea - таба, видео

Регистрация Запомнить меня
Войти через:  Facebook Google Twitter Vk Yandex Mail.ru

The Bennies - Mushroom Tea - таба, видео

Печатать
Просмотров: 173
Уроки эстрадного вокала в Санкт-Петербурге
-------------------------------------------------------------------------------
                             MUSHROOM TEA - The Bennies
-------------------------------------------------------------------------------
Tabbed by: Declan

Tuning: Standard EADGBe

e|---------------------------------------------------------------------------|
B|-------------8--8-8-7--7---------------------------------------------------|
G|---9-7----7-9--------------------------------------------------------------|
D|-------9-------------------------------------------------------------------|
A|-7-------------------------------------------------------------------------|
E|---------------------------------------------------------------------------|

That's it! Have fun!
Добавлено: 30.07.2015
Другие материалы по этой песне:
  • Аккорды и текст

Страница создана 30.07.2015
http://primanota.ru/bennies/mushroom-tea-chords.htm
Привет, Гость.
Предлагаем пройти революционный курс по гитаре.
Подарок от PrimaNota.Ru, забирай!