PrimaNota.ru - самый крупный в мире бесплатный архив песенных текстов, аккордов, табулатур и нот


Benjamín - Songbird - аккорды и текст, видео

Регистрация Запомнить меня
Войти через:  Facebook Google Twitter Vk Yandex Mail.ru

Benjamín - Songbird - аккорды и текст, видео

Печатать
Просмотров: 36
Songbird
Benjamín
-------------------------------------------------------------------------------
                             Songbird - Benjamin
-------------------------------------------------------------------------------
Tabbed by: Alek Nielsen

Tuning: Standard, Capo on the 4th fret. 
Note: Listen to the song for the correct strumming pattern. 


CHORDS USED:
Em (022000)
G  (320003)
Am (002210)




INTRO:
 
     (Em)                 (G)
e|----0---------0----------3---------3----|
B|----0---------0----------0---------0----|
G|----0---------0----------0---------0----|  (x4)
D|----2------2--0----------0------0--0----|
A|----2--0h2----2----------2--0h2----0----|  
E|-0--0---------0-------3--3---------3----|



VERSE 1:

Em   G      Am
     I sold my heart to a songbird,

Em   G      Am
She played for me the sweetest tune that,

Em   G      Am
My old soul had heard in such a long while,

Em   G      Am
And ever since and singing the same tune~ 


     Em  G  Am (x4) 
     Am  G (x1)          




CHORUS 1: 

Am                 Em
And I can hear you sing,~

G                  Am
Your song calls to me,~

G            Am    Em
It brings me home,~

G                 Am    
No matter where I go~



     (Em)                 (G)
e|----0---------0----------3---------3----|
B|----0---------0----------0---------0----|
G|----0---------0----------0---------0----|  (x4)
D|----2------2--0----------0------0--0----|
A|----2--0h2----2----------2--0h2----0----|  
E|-0--0---------0-------3--3---------3----|


VERSE 2: 

Em   G      Am 
I felt a strange taking over,

Em   G      Am
The whole world now,

Em   G      Am
Was singing to the tune of my beloved songbird,

Em   G      Am
And everyday it still sounded new~


     Em  G  Am (x4) 
     Am  G (x1) 




CHORUS 2: 

Am                 Em
And I can hear you sing,~

G                  Am
Your song calls to me,~

G(x)         Am    Em
It brings me home,~

G                 Am    
No matter where I go~




OUTRO: 

     (Em)                 (G)
e|----0---------0----------3---------3----|
B|----0---------0----------0---------0----|
G|----0---------0----------0---------0----|  (x4)
D|----2------2--0----------0------0--0----|
A|----2--0h2----2----------2--0h2----0----|  
E|-0--0---------0-------3--3---------3----|


************************************

| /   slide up
| \   slide down
| h   hammer-on
| p   pull-off
| ~   vibrato
| +   harmonic
| x   Mute note
| b   Bend
| pb  Pre-bend
| br  Bend release
| pbr Pre-bend release
| brb Bend release bend

************************************
Добавлено: 07.05.2016
Другие материалы по этой песне:
  • Аккорды и текст

Страница создана 07.05.2016
http://primanota.ru/benjamin/songbird-chords.htm
Привет, Гость.
Предлагаем пройти революционный курс по гитаре.
Подарок от PrimaNota.Ru, забирай!