PrimaNota.ru - самый крупный в мире бесплатный архив песенных текстов, аккордов, табулатур и нот


Benjamin Biolay - Bien Avant - аккорды и текст, видео

Регистрация Запомнить меня
Войти через:  Facebook Google Twitter Vk Yandex Mail.ru

Benjamin Biolay - Bien Avant - аккорды и текст, видео

Печатать
Просмотров: 35
Авторы музыки: Benjamin Biolay
Авторы текста: Benjamin Biolay
Bien Avant
Benjamin Biolay
Benjamin Biolay "Bien Avant" 
half step down tuning

     A    E   F#m   D   C#m   Bm  A/F#  
e:---0----0----2--------------2----0----|
B:---2----0----2----7----5----3----2----|
G:---2----1----2----7----6----4----2----|
D:---2----2----4----7----6----4----2----|
A:---0----2----4----5----4----2----x----|
E:--------0----2-------------------2----|

Verse
   A            E           F#m                      D           C#m          F#m                         
e:----------0-----------0-:----------2-------------:----------------------4-:----------2-------------:
B:-------2-----------0----:-------2----------------:----------7--------5----:-------2----------------:
G:----2-----------1-------:----2--------2-----2----:-------7--------6-------:----2--------2----------:
D:------------------------:----------------4-------:----7-------------------:----------------4-------:          
A:-0----------------------:------------------------:-5-----------4----------:------------------------:
E:--------------0---------:-2--------------------2-:------------------------:-2-----------------2--4-:
  
Chorus
   A                        D                        Bm                       E
e:----------0-------------:----------2-------------:----------2-------------:----------0-------------: 
B:-------2--------2-------:-------3--------3-------:-------3--------3-------:-------0--------0-------:  
G:----2--------------2----:----2--------------2----:----4--------------4----:----1--------------1----:
D:------------------------:-0-----------0--------0-:------------------------:------------------------:
A:-0------------0-------0-:------------------------:-2-----------2--------2-:------------------------:
E:------------------------:------------------------:------------------------:-0-----------0--------0-:

   C#m                      A/F#                     Bm
e:----------4-------------:----------0-----0-------:----------2-------------:----------2-------------: 
B:-------5--------5-------:-------2-----2----------:-------3--------3-----3-:-------3--------3-----3-:  
G:----6--------------6----:----2--------------2----:----4--------4-----4----:----4--------4-----4----:
D:------------------------:------------------------:------------------------:------------------------:
A:-4-----------4--------4-:------------------------:-2----------------------:-2----------------------:
E:------------------------:-2--------------------2-:------------------------:------------------------: 
                       
  F#m                                                A                        F#     
e:------------------------:------------------------:----------5-------------:------------------------:
B:---------10-------12----:---------10-------12----:-------5-----------5----:---------11-------11----:
G:------11-------11----11-:------11-------11----11-:----6-----------6-------:------11-------11-------:
D:---11-------11----------:---11-------11----------:------------------------:---11-------------------:
A:-9----------------------:-9----------------------:------------------------:-9-----------9--------9-:
E:------------------------:------------------------:-5-----------5--------5-:------------------------:

  Bm                        E                               
e:----------7-------------:----------2-------------:
B:-------7-----------7----:-------0-----------0----:
G:----7-----------7-------:----1-----------1-------:
D:------------------------:------------------------:
A:------------------------:------------------------:
E:-7-----------7--------7-:-0-----------0--------0-:


A          E             F#m
Bien avant qu'on se soit connu
D          C#m           F#m
Bien avant qu'on se soit parlé
A          E             F#m
Bien avant que je t'aie vue nue Je savais
D          C#m           F#m
déjà que je t'en voudrais
A          E             F#m
Bien avant qu'on se soit déçu
D          C#m           F#m
Bien avant qu'on soit des déchets
A          E             F#m
Bien avant ce goût de déjà vu Je savais
D          C#m           F#m
déjà qu'on y resterait

A                           D
Que personne ne sortira d'ici
Bm                          E
Que personne ne retiendra la nuit
C#m                         A/F#
Qu'on n'ira pas tous au paradis
           Bm            F#m
Bien avant l'heure De la ciguë
           A             F#
Bien avant l'heure Des heures indues
Bm                     E
Bien avant qu'on s'aime Tu ne m'aimais plus

A          E             F#m
Bien avant qu'on se soit brisé
D          C#m           F#m
Bien avant qu'on soit des vendus
A          E             F#m
Bien avant que je t'aie reniée Je savais 
D          C#m           F#m
déjà qu'on était vaincu

A          E             F#m
Bien avant qu'on se soit cogné
D          C#m           F#m
Bien avant qu'on ait du vécu
A          E             F#m
Bien avant que tu te fasses soigner Je savais 
D          C#m           F#m
déjà qu'on était perdu

A                           D
Et que personne ne sortirait d'ici
Bm                          E
Et que personne ne retiendrait la nuit
C#m                         A/F#
Qu'on n'ira pas tous au paradis
           Bm            F#m
Bien avant l'heure De la ciguë
           A              F#
Bien avant l'heure Des heures indues
Bm                     E
Bien avant qu'on s'aime Tu ne m'aimais plus

A          E             F#m
Bien avant qu'on se soit perdu
D          C#m           F#m
Oui bien avant qu'on n'ait rien gagné
A          E             F#m
Bien avant les coups de massue Je savais 
D          C#m           F#m
déjà tout ce que je sais

A          E             F#m
Bien avant qu'on soit des pendus
D          C#m           F#m
Bien avant qu'on soit des regrets
A          E             F#m
Bien avant que tout soit fichu Je savais 
D          C#m           F#m
déjà Que tu t'en foutais.
Добавлено: 14.04.2016
Другие материалы по этой песне:
  • Аккорды и текст

Страница создана 14.04.2016
http://primanota.ru/benjamin-biolay/bien-avant-chords.htm
Привет, Гость.
Предлагаем пройти революционный курс по гитаре.
Подарок от PrimaNota.Ru, забирай!