PrimaNota.ru - самый крупный в мире бесплатный архив песенных текстов, аккордов, табулатур и нот


Bengala - No Vuelvas - таба, видео

Регистрация Запомнить меня
Войти через:  Facebook Google Twitter Vk Yandex Mail.ru

Bengala - No Vuelvas - таба, видео

Печатать
Просмотров: 119
checa como se escucha http://www.youtube.com/watch?v=0rp1_rpMaps

Pista 1
     E  S E  S E  S S S E  E  S    E  S E  S S S E  E  S S S S  
E||-----------------------------|------------------------------|
B||-----------------------------|------------------------------|
G||-----------------------------|------------------------------|
D||-----------------1-1-1--1--1-|--2--2-2--2---2-2--2--2-2-1-0-|
A||--3--3-3--3-3--3-------------|------------2-----------------|
E||-----------------------------|------------------------------|


  E  S E  S E  S S S E  E  S    S S S E  S E  E  E  S S E   
-----------------------------|-----------------------------|
-----------------------------|-----------------------------|
-----------------------------|-----------------------------|
-----------------------------|-----------------------------|
--3--3-3--3-3--3-0-0-0--0--0-|--0-2------0-2--------0-2----|
-----------------------------|------0-0-------0--0------0--|


  E  S E  S E  S S S E  E  S    E  S E  S S S E  E  S S S S  
-----------------------------|------------------------------|
-----------------------------|------------------------------|
-----------------------------|------------------------------|
-----------------1-1-1--1--1-|--2--2-2--2---2-2--2--2-2-1-0-|
--3--3-3--3-3--3-------------|------------2-----------------|
-----------------------------|------------------------------|


  E  S E  S E  S S S E  E  S    S S S Q    S S Q    E  S                    
-----------------------------|---------------------------|-----|-----|-----|
-----------------------------|---------------------------|-----|-----|-----|
-----------------------------|---------------------------|-----|-----|-----|
-----------------------------|---------------------------|-----|-----|-----|
--3--3-3--3-3--3-0-0-0--0--0-|--0-2--------0-2-----------|-----|-----|-----|
-----------------------------|------0-0--------0---------|-----|-----|-----|


  S S S S S S S S S S S S S S S S    S S S S S S S S S S S S S S S S  
----------------------------------|----------------------------------|
----------------------------------|------------------------5---------|
----0---0---0---0---0---0---2---4-|----4---4---4---4---4-------4---4-|
--2---2---2---2---2---2---2---2---|--2---2---2---2---2---2---2---2---|
----------------------------------|----------------------------------|
----------------------------------|----------------------------------|


  S S S S S S S S S S S S S S S S    S S S S S S S S S S S S S S S S  
----------------------------------|----------------------------------|
----------------------------------|----------------------------------|
----4---4---4---4---4---2---2---0-|----0---0---0---0---0---0---0---0-|
--2---2---2---2---2---2---2---2---|--2---2---2---2---2---2---2---2---|
----------------------------------|----------------------------------|
----------------------------------|----------------------------------|


  S S S E  S S S S S S E  S S S    S S S S S S S S S S S S S S S S  
--------------------------------|----------------------------------|
--------------------------------|----------------------------------|
--------------------------------|----------------------------------|
--7-7-7-7--7-7-7-9-9-9-9--9-9-9-|--5-5-5-5-5-5-5-5-4-4-4-4-2-2-2-2-|
--7-7-7-7--7-7-7-9-9-9-9--9-9-9-|--5-5-5-5-5-5-5-5-4-4-4-4-2-2-2-2-|
--5-5-5-5--5-5-5-7-7-7-7--7-7-7-|--3-3-3-3-3-3-3-3-2-2-2-2-0-0-0-0-|


  S S S E  S S S S S S E  S S S    S S S S S S S S  S  S  S  E   S  S  S  
--------------------------------|----------------------------------------|
--------------------------------|----------------------------------------|
--------------------------------|--9-9-9-9-9-9-9-9-11-11-11-11--11-11-11-|
--7-7-7-7--7-7-7-9-9-9-9--9-9-9-|--9-9-9-9-9-9-9-9-11-11-11-11--11-11-11-|
--7-7-7-7--7-7-7-9-9-9-9--9-9-9-|--7-7-7-7-7-7-7-7--9--9--9--9---9--9--9-|
--5-5-5-5--5-5-5-7-7-7-7--7-7-7-|----------------------------------------|


  S S S E  S S S S S S E  S S S    S S S S S S S S S S S S S S S S  
--------------------------------|----------------------------------|
--------------------------------|----------------------------------|
--------------------------------|----------------------------------|
--7-7-7-7--7-7-7-9-9-9-9--9-9-9-|--5-5-5-5-5-5-5-5-4-4-4-4-2-2-2-2-|
--7-7-7-7--7-7-7-9-9-9-9--9-9-9-|--5-5-5-5-5-5-5-5-4-4-4-4-2-2-2-2-|
--5-5-5-5--5-5-5-7-7-7-7--7-7-7-|--3-3-3-3-3-3-3-3-2-2-2-2-0-0-0-0-|


  S S S E  S S S S S S E  S S S    S S S S S S S S  S  S  S  E   S  S  S  
--------------------------------|----------------------------------------|
--------------------------------|----------------------------------------|
--------------------------------|--9-9-9-9-9-9-9-9-11-11-11-11--11-11-11-|
--7-7-7-7--7-7-7-9-9-9-9--9-9-9-|--9-9-9-9-9-9-9-9-11-11-11-11--11-11-11-|
--7-7-7-7--7-7-7-9-9-9-9--9-9-9-|--7-7-7-7-7-7-7-7--9--9--9--9---9--9--9-|
--5-5-5-5--5-5-5-7-7-7-7--7-7-7-|----------------------------------------|


  E  S E  S E  S S S E  E  S    E  S E  S S S E  E  S S S S  
-----------------------------|------------------------------|
-----------------------------|------------------------------|
-----------------------------|------------------------------|
-----------------1-1-1--1--1-|--2--2-2--2---2-2--2--2-2-1-0-|
--3--3-3--3-3--3-------------|------------2-----------------|
-----------------------------|------------------------------|


  E  S E  S E  S S S E  E  S    S S S Q    S S Q    E  S                 
-----------------------------|---------------------------|----|----|----|
-----------------------------|---------------------------|----|----|----|
-----------------------------|---------------------------|----|----|----|
-----------------------------|---------------------------|----|----|----|
--3--3-3--3-3--3-0-0-0--0--0-|--0-2--------0-2-----------|----|----|----|
-----------------------------|------0-0--------0---------|----|----|----|


  S S S S S S S S S S S S S S S S    S S S S S S S S S S S S S S S S  
----------------------------------|----------------------------------|
----------------------------------|------------------------5---------|
----0---0---0---0---0---0---2---4-|----4---4---4---4---4-------4---4-|
--2---2---2---2---2---2---2---2---|--2---2---2---2---2---2---2---2---|
----------------------------------|----------------------------------|
----------------------------------|----------------------------------|


  S S S S S S S S S S S S S S S S    S S S S S S S S S S S S S S S S  
----------------------------------|----------------------------------|
----------------------------------|----------------------------------|
----4---4---4---4---4---2---2---0-|----0---0---0---0---0---0---0---0-|
--2---2---2---2---2---2---2---2---|--2---2---2---2---2---2---2---2---|
----------------------------------|----------------------------------|
----------------------------------|----------------------------------|


  S S S E  S S S S S S E  S S S    S S S S S S S S S S S S S S S S  
--------------------------------|----------------------------------|
--------------------------------|----------------------------------|
--------------------------------|----------------------------------|
--7-7-7-7--7-7-7-9-9-9-9--9-9-9-|--5-5-5-5-5-5-5-5-4-4-4-4-2-2-2-2-|
--7-7-7-7--7-7-7-9-9-9-9--9-9-9-|--5-5-5-5-5-5-5-5-4-4-4-4-2-2-2-2-|
--5-5-5-5--5-5-5-7-7-7-7--7-7-7-|--3-3-3-3-3-3-3-3-2-2-2-2-0-0-0-0-|


  S S S E  S S S S S S E  S S S    S S S S S S S S  S  S  S  E   S  S  S  
--------------------------------|----------------------------------------|
--------------------------------|----------------------------------------|
--------------------------------|--9-9-9-9-9-9-9-9-11-11-11-11--11-11-11-|
--7-7-7-7--7-7-7-9-9-9-9--9-9-9-|--9-9-9-9-9-9-9-9-11-11-11-11--11-11-11-|
--7-7-7-7--7-7-7-9-9-9-9--9-9-9-|--7-7-7-7-7-7-7-7--9--9--9--9---9--9--9-|
--5-5-5-5--5-5-5-7-7-7-7--7-7-7-|----------------------------------------|


  S S S E  S S S S S S E  S S S    S S S S S S S S S S S S S S S S  
--------------------------------|----------------------------------|
--------------------------------|----------------------------------|
--------------------------------|----------------------------------|
--7-7-7-7--7-7-7-9-9-9-9--9-9-9-|--5-5-5-5-5-5-5-5-4-4-4-4-2-2-2-2-|
--7-7-7-7--7-7-7-9-9-9-9--9-9-9-|--5-5-5-5-5-5-5-5-4-4-4-4-2-2-2-2-|
--5-5-5-5--5-5-5-7-7-7-7--7-7-7-|--3-3-3-3-3-3-3-3-2-2-2-2-0-0-0-0-|


  S S S E  S S S S S S E  S S S    S S S S S S S S  S  S  S  E   S  S  S  
--------------------------------|----------------------------------------|
--------------------------------|----------------------------------------|
--------------------------------|--9-9-9-9-9-9-9-9-11-11-11-11--11-11-11-|
--7-7-7-7--7-7-7-9-9-9-9--9-9-9-|--9-9-9-9-9-9-9-9-11-11-11-11--11-11-11-|
--7-7-7-7--7-7-7-9-9-9-9--9-9-9-|--7-7-7-7-7-7-7-7--9--9--9--9---9--9--9-|
--5-5-5-5--5-5-5-7-7-7-7--7-7-7-|----------------------------------------|


  E  E  E  S S Q       E  S E  S Q    S S E  E     S E  S Q    E  E  E  E   
--------------------|---------------------------|--------------------------|
--5-----------------|---------------------------|--------------------------|
-----7--5--4-5-4----|---------------------------|--------------------------|
--------------------|--7--5-7--5-9----7-5-7-----|--5-7--5-9----7--5--7-----|
--------------------|------------------------7--|-----------------------7--|
--------------------|---------------------------|--------------------------|


  E  E  E  E  E  E  E  E     E  E  E  E  E  E  E  E   
--------------------------|--------------------------|
--x--x--x--x--x--x--x--x--|--x--x--x--x--x--x--x--x--|
--9--9--9--9--9--9--9--9--|--4--4--4--4--4--4--4--4--|
--x--x--x--x--x--x--x--x--|--x--x--x--x--x--x--x--x--|
--------------------------|--------------------------|
--------------------------|--------------------------|


  E  E  E  E  E  E  E  E     E  E  E  E  E  E  E  E   
--------------------------|--------------------------|
--x--x--x--x--x--x--x--x--|--x--x--x--x--x--x--x--x--|
--5--5--5--5--5--5--5--5--|--4--4--4--4--4--4--4--4--|
--x--x--x--x--x--x--x--x--|--x--x--x--x--x--x--x--x--|
--------------------------|--------------------------|
--------------------------|--------------------------|


  E  E  E   E   E   E   E   E     E  E  E  E  E  E  E  E   
-------------------------------|--------------------------|
--x--x--x---x---x---x---x---x--|--x--x--x--x--x--x--x--x--|
--9--9--9--10--10--12--12--12--|--4--4--4--4--4--4--4--4--|
--x--x--x---x---x---x---x---x--|--x--x--x--x--x--x--x--x--|
-------------------------------|--------------------------|
-------------------------------|--------------------------|


  S S S E  S S S S S S E  S S S    S S S S S S S S S S S S S S S S  
--------------------------------|----------------------------------|
--------------------------------|----------------------------------|
--------------------------------|----------------------------------|
--7-7-7-7--7-7-7-9-9-9-9--9-9-9-|--5-5-5-5-5-5-5-5-4-4-4-4-2-2-2-2-|
--7-7-7-7--7-7-7-9-9-9-9--9-9-9-|--5-5-5-5-5-5-5-5-4-4-4-4-2-2-2-2-|
--5-5-5-5--5-5-5-7-7-7-7--7-7-7-|--3-3-3-3-3-3-3-3-2-2-2-2-0-0-0-0-|


  S S S E  S S S S S S E  S S S    S S S S S S S S  S  S  S  E   S  S  S   
--------------------------------|----------------------------------------||
--------------------------------|----------------------------------------||
--------------------------------|--9-9-9-9-9-9-9-9-11-11-11-11--11-11-11-||
--7-7-7-7--7-7-7-9-9-9-9--9-9-9-|--9-9-9-9-9-9-9-9-11-11-11-11--11-11-11-||
--7-7-7-7--7-7-7-9-9-9-9--9-9-9-|--7-7-7-7-7-7-7-7--9--9--9--9---9--9--9-||
--5-5-5-5--5-5-5-7-7-7-7--7-7-7-|----------------------------------------||




Duration Legend
---------------
W - whole
H - half
Q - quarter
E - 8th
S - 16th
T - 32nd
X - 64th
. - note dotted
|-n-|  - n-tuplets


Tablature Legend
----------------
L - tied note
x - dead note
g - grace note
(n) - ghost note
> - accentuded note
NH - natural harmonic
AH - artificial harmonic
TH - tapped harmonic
SH - semi harmonic
PH - pitch harmonic
h - hammer on
p - pull off
b - bend
br - bendRelease
pb - preBend
pbr - preBendRelease
brb - bendReleaseBend
\n/ - tremolo bar dip
\n - tremolo bar dive
-/n - tremolo bar Release up
/n\ - tremolo bar inverted dip
/n - tremolo bar return
-\n - tremolo bar Release down
S - shift slide
s - legato slide
/ -  slide into from below or out of upwards
\ -  slide into from above or out of downwards
~ - vibrato
W - wide vibrato
tr - trill
TP - tremolo picking
T - tapping
S - slap
P - pop
< - fade in
^ - brush up
v - brush down
Добавлено: 23.02.2012
Другие материалы по этой песне:
  • Аккорды и текст

Страница создана 23.02.2012
http://primanota.ru/bengala/no-vuelvas-chords.htm
Привет, Гость.
Предлагаем пройти революционный курс по гитаре.
Подарок от PrimaNota.Ru, забирай!