PrimaNota.ru - самый крупный в мире бесплатный архив песенных текстов, аккордов, табулатур и нот


Bengala - Carcel - таба, бас-таба, видео

Регистрация Запомнить меня
Войти через:  Facebook Google Twitter Vk Yandex Mail.ru

Bengala - Carcel - таба, бас-таба, видео

Печатать
Просмотров: 166
Canción: Carcel
Artista: Bengala
¡Hey! Empeze a escuchar a Bengala hace poquito por el Vive latino y esta
rola en generla me pego muy duro, por lo que decidi sacarla.
No estoy Completamente seguro de la tab, pero a mi me sirvio, supongo que a ustedes Tambien.
Un Saludo a Cesar, Pablo y Revilla que apoyan en este Sentido a la Musica
y Un saludo a Toda la Banda que escucha bengala y sobre todo a las Bandas Mexicanas.
Aqui Les Dejo La tab...

Afinacion esta en Estandard:
E
A
D
G
B
E

Intro  (Con Distorción, Ahi ustedes Chequen el Rasgeo)
No estoy Seguro pero hasta bengala hace que se confuna puede ser:
      Dm             Dm
||-----x-----|   ||---x---|
||-----10----|   ||---8---|  Como a Ustedes les Suene mejor
||-----10----|   ||---10--|
||-----8-----| ó ||---10--| x Cuantas veces Sea
||-----8-----|   ||---8---|
||-----x-----|   ||---x---|

Terminando 0:25...
||----------------------------------------------12-------------12-----|
||-----------13-------------13---------------13----13-------13----13--|
||--------14----14-------14----14-(12)-14-14----------14-14-----------|
||--12-12----------12-12----------------------------------------------|
||--------------------------------------------------------------------|
||--------------------------------------------------------------------|

----------------------------------------------------|
--10101010101010-8888-6666-10101010101010-6666-5555-|
----------------------------------------------------|   (Despues sueltas
----------------------------------------------------|x2  las cuerdas
----------------------------------------------------|    Dejando sonar la
----------------------------------------------------|    distorción)

(Primer Verso Bajo Y bataca)
No te voy a bajar una estrella
Te voy a mandar en una de ellas
Para que te vallas lejos
Para que ya no me estés

diciendo eso...

||-------13-13--------------------------------------------------|
||-15-15--------(x7)------------17-17--(x4)---------17-17--(x4)-|
||------------------------14-14---------------13-13-------------|
||--------------------------------------------------------------| x2
||--------------------------------------------------------------|
||--------------------------------------------------------------|

(Segundo Verso Bajo Bataca y Teclado)
No, no me digas que no te quise
Si me canse de decírtelo
Y aunque te vallas lejos
Yo no me olvido de lo que has dicho

y hecho...
||-------13-13--------------------------------------------------|
||-15-15--------(x7)------------17-17--(x4)---------17-17--(x4)-|
||------------------------14-14---------------13-13-------------|
||--------------------------------------------------------------| x2
||--------------------------------------------------------------|
||--------------------------------------------------------------|

Coro Puede Ser...
||----------------------|
||----------------------|
||---7----------5-------|
||---7--(x8)----5--(x8)-| x3
||---5----------3-------|
||----------------------|

En la Carcel...
||----------------------|
||----------------------|
||----------------------|
||---5--------3---------| x2
||---5-(x8)---3-(x8)----|
||---3--------1---------|


Y Va el intro Otra vez
||-----x-----|   ||---x---|
||-----10----|   ||---8---|  Como a Ustedes les Suene mejor
||-----10----|   ||---10--|
||-----8-----| ó ||---10--| x Cuantas veces Sea
||-----8-----|   ||---8---|
||-----x-----|   ||---x---|

||----------------------------------------------12-------------12-----|
||-----------13-------------13---------------13----13-------13----13--|
||--------14----14-------14----14-(12)-14-14----------14-14-----------|
||--12-12----------12-12----------------------------------------------|
||--------------------------------------------------------------------|
||--------------------------------------------------------------------|

----------------------------------------------------|
--10101010101010-8888-6666-10101010101010-6666-5555-|
----------------------------------------------------|
----------------------------------------------------|x2
----------------------------------------------------|
----------------------------------------------------|


(Verso 3)
No, no me digas que no te quise
Si me canse de decírtelo
Y aunque te vallas lejos
Yo no me olvido de lo que has
dicho y hecho...
||-------13-13--------------------------------------------------|
||-15-15--------(x7)------------17-17--(x4)---------17-17--(x4)-|
||------------------------14-14---------------13-13-------------|
||--------------------------------------------------------------| x2
||--------------------------------------------------------------|
||--------------------------------------------------------------|

Se Repite el Coro.
||----------------------|
||----------------------|
||---7----------5-------|
||---7--(x8)----5--(x8)-| x3
||---5----------3-------|
||----------------------|

En la Carcel...
||----------------------|     -----|
||----------------------|     -----|
||----------------------|     --9--|
||---5--------3---------| x2  --9--|
||---5-(x8)---3-(x8)----|     --7--|
||---3--------1---------|     -----|


Viene un como Outro Solo
De Rodillas Si te vas...
||--------17-20-17-------17-20-17--17-17-20-22b-20--17-17-20-22b-20-|
||--15-15----------15-15--------------------------------------------|
||------------------------------------------------------------------|
||------------------------------------------------------------------|
||------------------------------------------------------------------|
||------------------------------------------------------------------|

--17-17-17-17-17-17-17-14-14-14-14-15-15-15-16-16-|
--------------------------------------------------|
--------------------------------------------------|
--------------------------------------------------|
--------------------------------------------------|
--------------------------------------------------|

--17-17-17-17-17-17-17-13-13-13-13-12-12-12-12-|
-----------------------------------------------|
-----------------------------------------------|
-----------------------------------------------|  x2
-----------------------------------------------|
-----------------------------------------------|

Espero les haya Servido
By Ceinze :D
Cualquier Cosa:
vice-of-you@hotmail...
Добавлено: 16.04.2012
Другие материалы по этой песне:

Страница создана 16.04.2012
http://primanota.ru/bengala/carcel-chords.htm
Привет, Гость.
Предлагаем пройти революционный курс по гитаре.
Подарок от PrimaNota.Ru, забирай!