PrimaNota.ru - самый крупный в мире бесплатный архив песенных текстов, аккордов, табулатур и нот


Beneath The Sky - With A Gun Smoke Kiss - таба, видео

Регистрация Запомнить меня
Войти через:  Facebook Google Twitter Vk Yandex Mail.ru

Beneath The Sky - With A Gun Smoke Kiss - таба, видео

Печатать
Просмотров: 110
Another Beneath the sky song, great fun to play
Any problems contact me :D Atreyudrksthour

INTRO (0.00)

Guitar 1

D|-------------------------------|
A|-------------------------------|
F|-----7-9-7---7-9/10-10-9---7-9-|
C|-7-9---------------------------|
G|-------------------------------|
C|-------------------------------|

Guitar 1 plays this bar ^^ then this happens:

Guitar 1

D|-------------------------------|
A|-------------------------------|
F|-----7-9-7---7-9/10-10-9---7-9-|
C|-7-9---------------------------|
G|-------------------------------|
C|-------------------------------|x2

Guitar 2

D|-----|
A|-----|
F|-----|
C|-0-0-|
G|-0-0-|
C|-0-0-|x2

Then:

Guitar 1

D|-------------------------------|
A|-------------------------------|
F|---7---7-----7-----7---7-----7-|
C|-7---7-----7-----7---7-----7---|
G|-------------------------------|
C|-------------------------------|

Guitar 2

D|-----|
A|-----|
F|-----|
C|-3-3-|
G|-3-3-|
C|-3-3-|

Guitar 1

D|---------------------------------------|
A|---------------------------------------|
F|---7---7-h9-p7-----7-----7---7---7---7-|
C|-7---7-----------7-----7---7---7---7---|
G|---------------------------------------|
C|---------------------------------------|

Guitar 2

D|-----|
A|-----|
F|-----|
C|-3-0-|
G|-3-0-|
C|-3-0-|
PRE-VERSE (0.27)

Guitar 1

D|---------------------------------------------|
A|---------------------------------------------|
F|---------------------------------------------|
C|---------------------------------------------|
G|-0-5---5-7-3-8---8-7-5-8---8-7-0-5---5-7-8-0-|
C|-0---0-----3---0-----5---0-----0---0-------0-| x2

Guitar 2

D|---------------|
A|---------------|
F|---------------|
C|-0-------3---1-|
G|-0-------3---1-|
C|-0-------3---1-| x2

VERSE (0.38)

Both guitars come in fully now

Guitar 1

D|---------------------------------------------|
A|---------------------------------------------|
F|---------------------------------------------|
C|---------------------------------------------|
G|-0-5---5-7-3-8---8-7-5-8---8-7-0-5---5-7-8-0-|
C|-0---0-----3---0-----5---0-----0---0-------0-| x2

Guitar 2

D|---------------------------------------------|
A|---------------------------------------------|
F|---------------------------------------------|
C|---------------------------------------------|
G|-0-5---5-7-3-8---8-7-5-8---8-7-0-5---5-7-8-0-|
C|-0---0-----3---0-----5---0-----0---0-------0-| x2

Then its this bit:

Guitar 1

D|----------------------------------------------------------------------|
A|----------------------------------------------------------------------|
F|----------------------------------------------------------------------|
C|----------------------------------------------------------------------|
G|-00---00---000000-00---00---000000-88---88-888888-55---55-555-5-5-5-5-|
C|-00---00---000000-00---00---000000-88---88-888888-55---55-555-5-5-5-5-|
   ..   ..   ...... ..   ..   ...... ..   .. ...... ..   .. ...
Guitar 2

D|----------------------------------------------------------------------|
A|----------------------------------------------------------------------|
F|----------------------------------------------------------------------|
C|----------------------------------------------------------------------|
G|-00---00---000000-00---00---000000-88---88-888888-55---55-555-5-5-5-5-|
C|-00---00---000000-00---00---000000-88---88-888888-55---55-555-5-5-5-5-| x2
   ..   ..   ...... ..   ..   ...... ..   .. ...... ..   .. ...

On the second time round guitar 1 does this:

Guitar 1

D|---------------------------------------------|
A|---------------------------------------------|
F|---------------------------------------------|
C|---------------------------------------------|
G|-0-5---5-7-3-8---8-7-5-8---8-7-0-5---5-7-8-0-|
C|-0---0-----3---0-----5---0-----0---0-------0-|

D|-----------------------------------------|
A|-----------------------------------------|
F|-----------------------------------------|
C|-----------------------------------------|
G|-0-5---5-7-3-8---8-7-5-8---8-7-0-5-5-5-5-|
C|-0---0-----3---0-----5---0-----0-5-5-5-5-|
                                          . . . .

CHORUS (1.12)

Guitar 1

Not too sure about the lead, its difficult to make out

D|-----------------------------------------------------------------|
A|-----------------------------------------------------------------|
F|-7-9-10-9-7-9-7-5-7-5-4---7-9-10-9-7-9-7-5-7-5-4---9-10-12121212-|
C|-----------------------------------------------------------------|
G|---------------------------------------------------7—8—-10101010-|
C|-----------------------------------------------------------------|

D|-----------------------------------------------------------|
A|-----------------------------------------------------------|
F|-7-9-10-9-7-9-7-5-7-5-4---7-9-10-9-7-9-7-5-7-5-4---7-5-3---|
C|---------------------------------------------------------5-|
G|---------------------------------------------------5-3-1-5-|
C|---------------------------------------------------------5-|

Guitar 2

D|------------------------------------------------------------------|
A|------------------------------------------------------------------|
F|------------------------------------------------------------------|
C|-0000000000000000333333333333333300000000000000003333333355555555-|
G|-0000000000000000333333333333333300000000000000003333333355555555-|
C|-0000000000000000333333333333333300000000000000003333333355555555-|

D|-------------------------------------------------|
A|-------------------------------------------------|
F|-----------------------------------------7-5-3---|
C|-0000000000000000-5-3-0------------------------5-|
G|-0000000000000000-5-3-0------------------5-3-1-5-|
C|-0000000000000000-5-3-0-0000000000000000-------5-|

POST-CHORUS (1.35)

D|---------------------------------------------|
A|---------------------------------------------|
F|---------------------------------------------|
C|---------------------------------------------|
G|-0-5---5-7-3-8---8-7-5-8---8-7-0-5---5-7-8-0-|
C|-0---0-----3---0-----5---0-----0---0-------0-| x2

Guitar 2

D|---------------|
A|---------------|
F|---------------|
C|-0-------3---1-|
G|-0-------3---1-|
C|-0-------3---1-| x2

VERSE 2 (1.46)

Guitar 1

D|---------------------------------------------|
A|---------------------------------------------|
F|---------------------------------------------|
C|---------------------------------------------|
G|-0-5---5-7-3-8---8-7-5-8---8-7-0-5---5-7-8-0-|
C|-0---0-----3---0-----5---0-----0---0-------0-| x2

Guitar 2

D|---------------------------------------------|
A|---------------------------------------------|
F|---------------------------------------------|
C|---------------------------------------------|
G|-0-5---5-7-3-8---8-7-5-8---8-7-0-5---5-7-8-0-|
C|-0---0-----3---0-----5---0-----0---0-------0-| x2

Guitar 1

D|--------------------------------------------------|
A|--------------------------------------------------|
F|--------------------------------------------------|
C|--------------------------------------------------|
G|-0-7---7-9-3-10---10-9-5-10---10-9-0-7---7-9-10-0-|
C|-0---0-----3----0------5----0------0---0--------0-|

D|------------------------------------|
A|------------------------------------|
F|------------------------------------|
C|------------------------------------|
G|-88---88-888888-55---55-555-5-5-5-5-|
C|-88---88-888888-55---55-555-5-5-5-5-|

Guitar 2

D|----------------------------------------------------------------------|
A|----------------------------------------------------------------------|
F|----------------------------------------------------------------------|
C|----------------------------------------------------------------------|
G|-00---00---000000-00---00---000000-88---88-888888-55---55-555-5-5-5-5-|
C|-00---00---000000-00---00---000000-88---88-888888-55---55-555-5-5-5-5-| x2
   ..   ..   ...... ..   ..   ...... ..   .. ...... ..   .. ...

Guitar 1

D|---------------------------------------------|
A|---------------------------------------------|
F|---------------------------------------------|
C|---------------------------------------------|
G|-0-5---5-7-3-8---8-7-5-8---8-7-0-5---5-7-8-0-|
C|-0---0-----3---0-----5---0-----0---0-------0-|

Guitar 2

D|---------------------------------------------|
A|---------------------------------------------|
F|---------------------------------------------|
C|---------------------------------------------|
G|-0-5---5-7-3-8---8-7-5-8---8-7-0-5---5-7-8-0-|
C|-0---0-----3---0-----5---0-----0---0-------0-|

Guitar 1

D|------------------------------------|
A|------------------------------------|
F|------------------------------------|
C|------------------------------------|
G|-88---88-888888-55---55-555-5-5-5-5-|
C|-88---88-888888-55---55-555-5-5-5-5-|

Guitar 2

D|------------------------------------|
A|------------------------------------|
F|------------------------------------|
C|------------------------------------|
G|-88---88-888888-55---55-555-5-5-5-5-|
C|-88---88-888888-55---55-555-5-5-5-5-|

PRE-CHORUS (2.20)

Guitars 1 and 2

D|---------------------------------------------------|
A|---------------------------------------------------|
F|---------------------------------------------------|
C|-5555777788101012121010777755557788101088----------|
G|---------------------------------------------------|
C|---------------------------------------------------| x2

CHORUS (2.32)

Guitar 1

Not too sure about the lead, its difficult to make out

D|-----------------------------------------------------------------|
A|-----------------------------------------------------------------|
F|-7-9-10-9-7-9-7-5-7-5-4---7-9-10-9-7-9-7-5-7-5-4---9-10-12121212-|
C|-----------------------------------------------------------------|
G|---------------------------------------------------7—8—-10101010-|
C|-----------------------------------------------------------------|

D|-----------------------------------------------------------|
A|-----------------------------------------------------------|
F|-7-9-10-9-7-9-7-5-7-5-4---7-9-10-9-7-9-7-5-7-5-4---7-5-3---|
C|---------------------------------------------------------5-|
G|---------------------------------------------------5-3-1-5-|
C|---------------------------------------------------------5-|

Guitar 2

D|------------------------------------------------------------------|
A|------------------------------------------------------------------|
F|------------------------------------------------------------------|
C|-0000000000000000333333333333333300000000000000003333333355555555-|
G|-0000000000000000333333333333333300000000000000003333333355555555-|
C|-0000000000000000333333333333333300000000000000003333333355555555-|

D|-------------------------------------------------|
A|-------------------------------------------------|
F|-----------------------------------------7-5-3---|
C|-0000000000000000-5-3-0------------------------5-|
G|-0000000000000000-5-3-0------------------5-3-1-5-|
C|-0000000000000000-5-3-0-0000000000000000-------5-|

SOLO (2.55)

Guitar 1

D|-----------------------------------------|
A|-----------------------------------------|
F|-----------------------------------------|
C|-12-14-15-17---15-14-15-12-14-12---12-10-|
G|-----------------------------------------|
C|-----------------------------------------|

D|-----------------------------------------|
A|-----------------------------------------|
F|-----------------------------------------|
C|-12-14-15-17---15-14-15-12-14-12---15-17-|
G|-----------------------------------------|
C|-----------------------------------------|

D|-----------------------------------------|
A|-----------------------------------------|
F|-----------------------------------------|
C|-12-14-15-17---15-14-15-12-14-12---12-10-|
G|-----------------------------------------|
C|-----------------------------------------|

D|----------------------------------------------------------|
A|----------------------------------------------------------|
F|----------------------------------------------------------|
C|-12-14-15-17---14-15-14---14-15-17---15-17-19---21-22-----|
G|----------------------------------------------------------|
C|----------------------------------------------------------|

Do all of this twice ^^^

Guitar 2

D|-------------------------------------------------------------------|
A|-------------------------------------------------------------------|
F|-------------------------------------------------------------------|
C|-00000000000000003333333333333333555555555555555557777777755553333-|
G|-00000000000000003333333333333333555555555555555557777777755553333-|
C|-00000000000000003333333333333333555555555555555557777777755553333-| x2

AFTER SOLO THINGY (3.18)

Guitar 1

D|----------------------------------------------------------|
A|----------------------------------------------------------|
F|----------------------------------------------------------|
C|----------------------------------------------------------|
G|-0-0-0-0-000-0-0-0-0-0-0-000-0-0-0-0-0-0-000-0-0-33331111-|
C|-0-0-0-0-000-0-0-0-0-0-0-000-0-0-0-0-0-0-000-0-0-33331111-| x3

D|-------------------------------------------------------------|
A|-------------------------------------------------------------|
F|-------------------------------------------------------------|
C|-------------------------------------------------------------|
G|-0-0-0-0-000-0-0-0-0-0-0-000-0-0-0-0-0-0-000-0-0-33331111-3b-|
C|-0-0-0-0-000-0-0-0-0-0-0-000-0-0-0-0-0-0-000-0-0-33331111----|

Guitar 2

D|----------------------------------------------------------|
A|----------------------------------------------------------|
F|----------------------------------------------------------|
C|----------------------------------------------------------|
G|-0-0-0-0-000-0-0-0-0-0-0-000-0-0-0-0-0-0-000-0-0-33331111-|
C|-0-0-0-0-000-0-0-0-0-0-0-000-0-0-0-0-0-0-000-0-0-33331111-| x3

D|-------------------------------------------------------------|
A|-------------------------------------------------------------|
F|-------------------------------------------------------------|
C|-------------------------------------------------------------|
G|-0-0-0-0-000-0-0-0-0-0-0-000-0-0-0-0-0-0-000-0-0-33331111-3b-|
C|-0-0-0-0-000-0-0-0-0-0-0-000-0-0-0-0-0-0-000-0-0-33331111----|

BREAKDOWN TYPE THING (3.45)

Guitar 1

D|----------------------------------------------------------|
A|----------------------------------------------------------|
F|----------------------------------------------------------|
C|----------------------------------------------------------|
G|-0-0-0-0-000-0-0-0-0-0-0-000-0-0-0-0-0-0-000-0-0-33331111-|
C|-0-0-0-0-000-0-0-0-0-0-0-000-0-0-0-0-0-0-000-0-0-33331111-| x2

Guitar 2

D|----------------------------------------------------------|
A|----------------------------------------------------------|
F|----------------------------------------------------------|
C|----------------------------------------------------------|
G|-0-0-0-0-000-0-0-0-0-0-0-000-0-0-0-0-0-0-000-0-0-33331111-|
C|-0-0-0-0-000-0-0-0-0-0-0-000-0-0-0-0-0-0-000-0-0-33331111-| x2

Guitar 1

D|--------------------------------------------|
A|--------------------------------------------|
F|--------------------------------------------|
C|--------------------------------------------|
G|-000-0-0-000-0-0-000-000-0-0-333333-1111111-|
C|-000-0-0-000-0-0-000-000-0-0-333333-1111111-| x2

Guitar 2

D|--------------------------------------------|
A|--------------------------------------------|
F|--------------------------------------------|
C|--------------------------------------------|
G|-000-0-0-000-0-0-000-000-0-0-333333-1111111-|
C|-000-0-0-000-0-0-000-000-0-0-333333-1111111-| x2

OUTRO (4.23)

Guitar 1

D|-------------------------------|
A|-------------------------------|
F|-----7-9-7---7-9/10-10-9---7-9-|
C|-7-9---------------------------|
G|-------------------------------|
C|-------------------------------| x3
Добавлено: 02.05.2012
Другие материалы по этой песне:
  • Аккорды и текст

Страница создана 02.05.2012
http://primanota.ru/beneath-the-sky/with-a-gun-smoke-kiss-chords.htm
Привет, Гость.
Предлагаем пройти революционный курс по гитаре.
Подарок от PrimaNota.Ru, забирай!