PrimaNota.ru - самый крупный в мире бесплатный архив песенных текстов, аккордов, табулатур и нот


Beneath The Sky - True Friends Stab You In The Front - таба, видео

Регистрация Запомнить меня
Войти через:  Facebook Google Twitter Vk Yandex Mail.ru

Beneath The Sky - True Friends Stab You In The Front - таба, видео

Печатать
Просмотров: 133
Hello again :D heres another Beneath the sky tab, hope its useful
Contact me if theres any issues :) Atreyudrksthour

INTRO (0.00)

Guitar 1

D|---------------------------------|
A|---------------------------------|
F|---------------------------------|
C|---------------------------------|
G|-0-000-000-00000---------8-7-----|
C|-0-000-000-00000-0-5-7-8-----7-9-|X3
   . ... ... ..... . . . .     . .

D|----------------------------------|
A|----------------------------------|
F|----------------------------------|
C|----------------------------------|
G|-0000-0000---10-8-10---7-8-7------|
C|-0000-0000-7---------7------------|
   .... ....

Guitar 2

D|---------------------------------|
A|---------------------------------|
F|---------------------------------|
C|---------------------------------|
G|-0-000-000-00000---------8-7-----|
C|-0-000-000-00000-0-5-7-8-----7-9-|X3
   . ... ... ..... . . . .     . .

D|----------------------------------|
A|----------------------------------|
F|----------------------------------|
C|----------------------------------|
G|-0000-0000---10-8-10---7-8-7------|
C|-0000-0000-7---------7------------|
   .... ....

VERSE 1 (0.11)

Guitar 1

D|--------------------------------------------------------------|
A|--------------------------------------------------------------|
F|--------------------------------------------------------------|
C|-------------7878787879797979---------------------------------|
G|-00-00-00-00------------------00-00-00-00---------8-7---------|
C|-00-00-00-00------------------00-00-00-00-0-5-7-8-----7-9-----|
   .. .. .. ..                  .. .. .. .. . . . .     . .

D|--------------------------------------------------------------|
A|--------------------------------------------------------------|
F|--------------------------------------------------------------|
C|-------------5656565645454545---------------------------------|
G|-00-00-00-00------------------00-00-00-00---------8-7---------|
C|-00-00-00-00------------------00-00-00-00-0-5-7-8-----7-9-----|
   .. .. .. ..                  .. .. .. .. . . . .     . .

Guitar 2

D|--------------------------------------------------------------|
A|--------------------------------------------------------------|
F|--------------------------------------------------------------|
C|-------------8989898989898989---------------------------------|
G|-00-00-00-00------------------00-00-00-00---------8-7---------|
C|-00-00-00-00------------------00-00-00-00-0-5-7-8-----7-10----|
   .. .. .. ..                  .. .. .. .. . . . .     . .

D|--------------------------------------------------------------|
A|--------------------------------------------------------------|
F|--------------------------------------------------------------|
C|-------------4343434342424242---------------------------------|
G|-00-00-00-00------------------00-00-00-00---------8-7---------|
C|-00-00-00-00------------------00-00-00-00-0-5-7-8-----7-10----|
   .. .. .. ..                  .. .. .. .. . . . .     . .

Just as a side note the 7878787878s and such I tap, because it sounds better

CHORUS 1 (0.23)

Guitar 1

D|-----------------------------------------|
A|-----------------------------------------|
F|-----------------------------------------|
C|-5-5-555-3-33-333-1-1-111-/87-77-10-1010-|
G|-5-5-555-3-33-333-1-1-111-/87-77-10-1010-|
C|-5-5-555-3-33-333-1-1-111-/87-77-10-1010-|X2

Guitar 2

D|-----------------------------------------|
A|-----------------------------------------|
F|-----------------------------------------|
C|-5-5-555-3-33-333-1-1-111-/87-77-10-1010-|
G|-5-5-555-3-33-333-1-1-111-/87-77-10-1010-|
C|-5-5-555-3-33-333-1-1-111-/87-77-10-1010-|X2

Guitar 1

D|-------------------------------------------------------|
A|-------------------------------------------------------|
F|-------------------------------------------------------|
C|-5-------7-8-7-5-------7-8---3-------7-8---3-----5-----|
G|-5-5-7-8-------5-0-7-8-----8-3-0-5-8-----8-3-7-8-5-7-8-|
C|-5-------------5-------------3-------------3-----5-----|
     . . .         . . .         . . .         . .   . .

D|-------------------------------------------------------|
A|-------------------------------------------------------|
F|-------------------------------------------------------|
C|-5-------7-8-7-5-------7-8---3-------7-8---3-----5-----|
G|-5-5-7-8-------5-0-7-8-----8-3-0-5-8-----8-3-7-8-5-7-8-|
C|-5-------------5-------------3-------------3-----5-----|
     . . .         . . .         . . .         . .   . .

Guitar 2

D|-----------------------------------------|
A|-----------------------------------------|
F|-----------------------------------------|
C|-5-5-555-3-33-333-1-1-111-/87-77-10-1010-|
G|-5-5-555-3-33-333-1-1-111-/87-77-10-1010-|
C|-5-5-555-3-33-333-1-1-111-/87-77-10-1010-|X2


D|-------------------------------------------------------|
A|-------------------------------------------------------|
F|-------------------------------------------------------|
C|-5-------7-8-7-5-------7-8---3-------7-8---3-----5-----|
G|-5-5-7-8-------5-0-7-8-----8-3-0-5-8-----8-3-7-8-5-7-8-|
C|-5-------------5-------------3-------------3-----5-----|
     . . .         . . .         . . .         . .   . .

D|-------------------------------------------------------|
A|-------------------------------------------------------|
F|-------------------------------------------------------|
C|-5-------7-8-7-5-------7-8---3-------7-8---3-----5-----|
G|-5-5-7-8-------5-0-7-8-----8-3-0-5-8-----8-3-7-8-5-7-8-|
C|-5-------------5-------------3-------------3-----5-----|
     . . .         . . .         . . .         . .   . .

Guitar 2

D|-------------------------------------------------------------------------|
A|-------------------------------------------------------------------------|
F|-17-17-17-17-17-17-17-17-15-15-15-15-15-15-15-15-14-14-14-14-14-14-14-14-|
C|-------------------------------------------------------------------------|
G|-15-15-15-15-15-15-15-15-13-13-13-13-13-13-13-13-12-12-12-12-12-12-12-12-|
C|-------------------------------------------------------------------------|

D|-------------------------------------------------|
A|-------------------------------------------------|
F|-15-15-15-15-17-17-17-17-19-19-19-19-19-19-19-19-|
C|-------------------------------------------------|
G|-13-13-13-13-17-17-17-17-19-19-19-19-19-19-19-19-|
C|-------------------------------------------------|

D|-------------------------------------------------------------------------|
A|-------------------------------------------------------------------------|
F|-17-17-17-17-17-17-17-17-15-15-15-15-15-15-15-15-14-14-14-14-12-12-12-12-|
C|-------------------------------------------------------------------------|
G|-15-15-15-15-15-15-15-15-13-13-13-13-13-13-13-13-12-12-12-12-10-10-10-10-|
C|-------------------------------------------------------------------------|

VERSE 2 (0.56)

Guitar 1

D|---------------------------------|
A|---------------------------------|
F|---------------------------------|
C|---------------------------------|
G|-0-000-000-00000---------8-7-----|
C|-0-000-000-00000-0-5-7-8-----7-9-|X3
   . ... ... ..... . . . .     . .

D|----------------------------------|
A|----------------------------------|
F|----------------------------------|
C|----------------------------------|
G|-0000-0000---10-8-10---7-8-7------|
C|-0000-0000-7---------7------------|
   .... ....

The last few notes of that bar are slowed down as you progress

Guitar 2

D|---------------------------------|
A|---------------------------------|
F|---------------------------------|
C|---------------------------------|
G|-0-000-000-00000---------8-7-----|
C|-0-000-000-00000-0-5-7-8-----7-9-|X3
   . ... ... ..... . . . .     . .

D|----------------------------------|
A|----------------------------------|
F|----------------------------------|
C|----------------------------------|
G|-0000-0000---10-8-10---7-8-7------|
C|-0000-0000-7---------7------------|
   .... ....

The last few notes of that bar are slowed down as you progress

BREAKDOWN (1.08)

Guitar 1

D|-----------------------------------------------------|
A|-----------------------------------------------------|
F|-----------------------------------------------------|
C|-----------------------------------------------------|
G|-000-000-000-0-0-0---0-0---000-000-000-0-0-0---0-0---|
C|-000-000-000-0-0-0---0-0---000-000-000-0-0-0---0-0---|
   ... ... ... . . .   . .   ... ... ... . . .   . .

D|---------------------------------------------------------|
A|---------------------------------------------------------|
F|---------------------------------------------------7-5-3-|
C|-------------------------4-------------------------x-x-x-|
G|-000-000-000-0-0-0---0-0-4-000-000-000-0-0-0---0-0-5-3-1-|
C|-000-000-000-0-0-0---0-0-4-000-000-000-0-0-0---0-0-------|
   ... ... ... . . .   . .   ... ... ... . . .   . .

Guitar 2

D|-----------------------------------------------------|
A|-----------------------------------------------------|
F|-----------------------------------------------------|
C|-----------------------------------------------------|
G|-000-000-000-0-0-0---0-0---000-000-000-0-0-0---0-0---|
C|-000-000-000-0-0-0---0-0---000-000-000-0-0-0---0-0---|
   ... ... ... . . .   . .   ... ... ... . . .   . .

D|---------------------------------------------------|
A|---------------------------------------------------|
F|---------------------------------------------------|
C|-------------------------2-------------------------|
G|-000-000-000-0-0-0---0-0-2-000-000-000-0-0-0---0-0-|
C|-000-000-000-0-0-0---0-0-2-000-000-000-0-0-0---0-0-|
   ... ... ... . . .   . .   ... ... ... . . .   . .

CHORUS 2 (1.38)

Guitar 1

D|-----------------------------------------|
A|-----------------------------------------|
F|-----------------------------------------|
C|-5-xxxxx-3-xxxxx-1-xxxxx-/87-77-10-1010--|
G|-5-xxxxx-3-xxxxx-1-xxxxx-/87-77-10-1010--|
C|-5-xxxxx-3-xxxxx-1-xxxxx-/87-77-10-1010--|X2
Guitar 2

D|-----------------------------------------|
A|-----------------------------------------|
F|-----------------------------------------|
C|-5-xxxxx-3-xxxxx-1-xxxxx-/87-77-10-1010--|
G|-5-xxxxx-3-xxxxx-1-xxxxx-/87-77-10-1010--|
C|-5-xxxxx-3-xxxxx-1-xxxxx-/87-77-10-1010--|X2

Guitar 1

D|-------------------------------------------------------|
A|-------------------------------------------------------|
F|-------------------------------------------------------|
C|-5-------7-8-7-5-------7-8---3-------7-8---3-----5-----|
G|-5-5-7-8-------5-0-7-8-----8-3-0-5-8-----8-3-7-8-5-7-8-|
C|-5-------------5-------------3-------------3-----5-----|
     . . .         . . .         . . .         . .   . .

D|-------------------------------------------------------|
A|-------------------------------------------------------|
F|-------------------------------------------------------|
C|-5-------7-8-7-5-------7-8---3-------7-8---3-----5-----|
G|-5-5-7-8-------5-0-7-8-----8-3-0-5-8-----8-3-7-8-5-7-8-|
C|-5-------------5-------------3-------------3-----5-----|
     . . .         . . .         . . .         . .   . .

D|-------------------------------------------------------|
A|-------------------------------------------------------|
F|-------------------------------------------------------|
C|-5-------7-8-7-5-------7-8---3-------7-8---3-----5-----|
G|-5-5-7-8-------5-0-7-8-----8-3-0-5-8-----8-3-7-8-5-7-8-|
C|-5-------------5-------------3-------------3-----5-----|
     . . .         . . .         . . .         . .   . .
D|-------------------------------------------------------|
A|-------------------------------------------------------|
F|-------------------------------------------------------|
C|-5-------7-8-7-5-------7-8---3-------7-8---3-----5-----|
G|-5-5-7-8-------5-0-7-8-----8-3-0-5-8-----8-3-7-8-5-7-8-|
C|-5-------------5-------------3-------------3-----5-----|
     . . .         . . .         . . .         . .   . .

Guitar 2

D|-------------------------------------------------------------------------|
A|-------------------------------------------------------------------------|
F|-17-17-17-17-17-17-17-17-15-15-15-15-15-15-15-15-14-14-14-14-14-14-14-14-|
C|-------------------------------------------------------------------------|
G|-15-15-15-15-15-15-15-15-13-13-13-13-13-13-13-13-12-12-12-12-12-12-12-12-|
C|-------------------------------------------------------------------------|

D|-------------------------------------------------|
A|-------------------------------------------------|
F|-15-15-15-15-17-17-17-17-19-19-19-19-19-19-19-19-|
C|-------------------------------------------------|
G|-13-13-13-13-17-17-17-17-19-19-19-19-19-19-19-19-|
C|-------------------------------------------------|

D|-------------------------------------------------------------------------|
A|-------------------------------------------------------------------------|
F|-17-17-17-17-17-17-17-17-15-15-15-15-15-15-15-15-14-14-14-14-12-12-12-12-|
C|-------------------------------------------------------------------------|
G|-15-15-15-15-15-15-15-15-13-13-13-13-13-13-13-13-12-12-12-12-10-10-10-10-|
C|-------------------------------------------------------------------------|


Do all of this for guitar 2 twice :D

BREAKDOWN (2.13)

Guitar 1

D|------------------------|
A|------------------------|
F|------------------------|
C|------------------------|
G|-00-00-00-00-00-00-0000-|
C|-00-00-00-00-00-00-0000-|X4
   .. .. .. .. .. .. ....

Guitar 2

D|------------------------|
A|------------------------|
F|------------------------|
C|------------------------|
G|-00-00-00-00-00-00-0000-|
C|-00-00-00-00-00-00-0000-|X4
   .. .. .. .. .. .. ....

Guitar 1

D|-----------|
A|-----------|
F|-----------|
C|-----------|
G|-000---000-|
C|-000---000-|
   ...   ...

^^ This bar and the one below are played alternately, guitar 1 plays 3 0s then guitar 2 
plays 3 0s etc

Guitar 2

D|--------------|
A|--------------|
F|--------------|
C|--------------|
G|----000---000-|
C|----000---000-|
      ...   ...

Guitar 1

D|---|------------------------------------|
A|---|------------------------------------|
F|---|------------------------------------|
C|-1-|---------------1-----3-----1---1-/3-|
G|-1-|-0-0-0-0-000-0-1-0-0-3-0-0-1-0-1-/3-|
C|-1-|-0-0-0-0-000-0-1-0-0-3-0-0-1-0-1-/3-|X4
       . . . . ... .   . .   . .   .

^^ the first note here is only played 1st time the bar is played, the other 3 times its 
missed out. Same goes for all the bits after this on both guitars

D|---|------------------------------------|
A|---|------------------------------------|
F|---|------------------------------------|
C|-1-|---------------1-----3-----1---1-/3-|
G|-1-|-0-0-0-0-0-0-0-1-0-0-3-0-0-1-0-1-/3-|
C|-1-|-0-0-0-0-0-0-0-1-0-0-3-0-0-1-0-1-/3-|X4

D|---|------------------------------------|
A|---|------------------------------------|
F|---|------------------------------------|
C|-1-|---------------1-----3-----1---1-/3-|
G|-1-|-0-0-0-0-000-0-1-0-0-3-0-0-1-0-1-/3-|
C|-1-|-0-0-0-0-000-0-1-0-0-3-0-0-1-0-1-/3-|X4
       . . . . ... .   . .   . .   .

Guitar 2

D|---|------------------------------------|
A|---|------------------------------------|
F|---|------------------------------------|
C|-1-|---------------1-----3-----1---1-/3-|
G|-1-|-0-0-0-0-000-0-1-0-0-3-0-0-1-0-1-/3-|
C|-1-|-0-0-0-0-000-0-1-0-0-3-0-0-1-0-1-/3-|X4
       . . . . ... .   . .   . .   .

D|---|------------------------------------|
A|---|------------------------------------|
F|---|------------------------------------|
C|-1-|---------------1-----3-----1---1-/3-|
G|-1-|-0-0-0-0-0-0-0-1-0-0-3-0-0-1-0-1-/3-|
C|-1-|-0-0-0-0-0-0-0-1-0-0-3-0-0-1-0-1-/3-|X4

D|---|------------------------------------|
A|---|------------------------------------|
F|---|------------------------------------|
C|-1-|---------------1-----3-----1---1-/3-|
G|-1-|-0-0-0-0-000-0-1-0-0-3-0-0-1-0-1-/3-|
C|-1-|-0-0-0-0-000-0-1-0-0-3-0-0-1-0-1-/3-|X4
       . . . . ... .   . .   . .   .
Добавлено: 20.04.2012
Другие материалы по этой песне:
  • Аккорды и текст

Страница создана 20.04.2012
http://primanota.ru/beneath-the-sky/true-friends-stab-you-in-the-front-chords.htm
Привет, Гость.
Предлагаем пройти революционный курс по гитаре.
Подарок от PrimaNota.Ru, забирай!