PrimaNota.ru - самый крупный в мире бесплатный архив песенных текстов, аккордов, табулатур и нот


Beneath The Sky - The Belle Of The Ball - таба, видео

Регистрация Запомнить меня
Войти через:  Facebook Google Twitter Vk Yandex Mail.ru

Beneath The Sky - The Belle Of The Ball - таба, видео

Печатать
Просмотров: 108
INTRO

Guitar 1

D|-------------------------------------------------------------------------|
A|-------------------------------------------------------------------------|
F|-------------------------------------------------------------------------|
C|-3-2-1-2---3-2-1-2---3-2-1-2-------------3-2-1-2-------------------------|
G|-3-2-1-2---3-2-1-2---3-2-1-2---000-000---3-2-1-2---00000000-/12----------|
C|-3-2-1-2---3-2-1-2---3-2-1-2---000-000---3-2-1-2---00000000-/12----------|
   . . . .   . . . .   . . . .   ... ...   . . . .   ........

Guitar 2

D|-------------------------------------------------------------------------|
A|-------------------------------------------------------------------------|
F|-------------------------------------------------------------------------|
C|-3-2-1-2---3-2-1-2---3-2-1-2-------------3-2-1-2-------------------------|
G|-3-2-1-2---3-2-1-2---3-2-1-2---000-000---3-2-1-2---00000000-/12----------|
C|-3-2-1-2---3-2-1-2---3-2-1-2---000-000---3-2-1-2---00000000-/12----------|
   . . . .   . . . .   . . . .   ... ...   . . . .   ........

VERSE 1

Guitar 1

D|-------------------------------------------------------------------------|
A|-------------------------------------------------------------------------|
F|-9--------------9-8-9--------------9-8-9--------------9-10-9-------------|
C|-9--------------9-8-9--------------9-8-9--------------9-10-9-------------|
G|-7-000000000000-7-6-7-000000000000-7-6-7-000000000000-7-8--7-000000000000|
C|---000000000000-------000000000000-------000000000000--------000000000000|
     ............       ............       ............        ............

D|-------------------------------------------------------------------------|
A|-------------------------------------------------------------------------|
F|-9-8-7-------------------------------------------------------------------|
C|-9-8-7-------------------------------------------------------------------|
G|-7-6-5-------------------------------------------------------------------|
C|-------------------------------------------------------------------------|

D|-------------------------------------------------------------------------|
A|-------------------------------------------------------------------------|
F|----------------8----------------7----------------6----------------------|
C|----------------8----------------7----------------6----------------------|
G|-0-0000-00-0000-6-0-0000-00-0000-5-0-0000-00-0000-4----------------------|
C|-0-0000-00-0000---0-0000-00-0000---0-0000-00-0000------------------------|
   . .... .. ....   . .... .. ....   . .... .. ....

D|-------------------------------------------------------------------------|
A|-------------------------------------------------------------------------|
F|----------------9----------------8----------------7----------------6-----|
C|----------------9----------------8----------------7----------------6-----|
G|-0-0000-00-0000-7-0-0000-00-0000-6-0-0000-00-0000-5-0-0000-00-0000-4-----|
C|-0-0000-00-0000---0-0000-00-0000---0-0000-00-0000---0-0000-00-0000-------|
   . .... .. ....   . .... .. ....   . .... .. ....   . .... .. ....

D|-------------------------------------------------------------------------|
A|-------------------------------------------------------------------------|
F|-------------------------------------------------------------------------|
C|-------------------------------------------------------------------------|
G|-0-0000-00-0000----------------------------------------------------------|
C|-0-0000-00-0000----------------------------------------------------------|
   . .... .. ....   

Guitar 2

D|-------------------------------------------------------------------------|
A|-------------------------------------------------------------------------|
F|-9--------------9-8-9--------------9-8-9--------------9-10-9-------------|
C|-9--------------9-8-9--------------9-8-9--------------9-10-9-------------|
G|-7-000000000000-7-6-7-000000000000-7-6-7-000000000000-7-8--7-000000000000|
C|---000000000000-------000000000000-------000000000000--------000000000000|
     ............       ............       ............        ............

D|-------------------------------------------------------------------------|
A|-------------------------------------------------------------------------|
F|-9-8-7-------------------------------------------------------------------|
C|-9-8-7-------------------------------------------------------------------|
G|-7-6-5-------------------------------------------------------------------|
C|-------------------------------------------------------------------------|

D|-------------------------------------------------------------------------|
A|-------------------------------------------------------------------------|
F|----------------8----------------7----------------6----------------------|
C|----------------8----------------7----------------6----------------------|
G|-0-0000-00-0000-6-0-0000-00-0000-5-0-0000-00-0000-4----------------------|
C|-0-0000-00-0000---0-0000-00-0000---0-0000-00-0000------------------------|
   . .... .. ....   . .... .. ....   . .... .. ....

D|-------------------------------------------------------------------------|
A|-------------------------------------------------------------------------|
F|----------------9----------------8----------------7----------------6-----|
C|----------------9----------------8----------------7----------------6-----|
G|-0-0000-00-0000-7-0-0000-00-0000-6-0-0000-00-0000-5-0-0000-00-0000-4-----|
C|-0-0000-00-0000---0-0000-00-0000---0-0000-00-0000---0-0000-00-0000-------|
   . .... .. ....   . .... .. ....   . .... .. ....   . .... .. ....

D|-------------------------------------------------------------------------|
A|-------------------------------------------------------------------------|
F|-------------------------------------------------------------------------|
C|-------------------------------------------------------------------------|
G|-0-0000-00-0000----------------------------------------------------------|
C|-0-0000-00-0000----------------------------------------------------------|
   . .... .. ....   

CHORUS

Guitar 1

D|-------------------------------------------------------------------------|
A|-------------------------------------------------------------------------|
F|-9-10---10-12---10-9---7---5-7---5-7-9-10---10-12---10-9---7---5-7-------|
C|-------------------------------------------------------------------------|
G|-------------------------------------------------------------------------|
C|-------------------------------------------------------------------------|

D|-------------------------------------------------------------------------|
A|-------------------------------------------------------------------------|
F|-9-10---10-12---15-14---12---15-14-12-10---9---10---10-12---10-9---7-----|
C|-------------------------------------------------------------------------|
G|-------------------------------------------------------------------------|
C|-------------------------------------------------------------------------|

D|-------------------------------------------------------------------------|
A|-------------------------------------------------------------------------|
F|-9-10---10-12---10-9---7---5-7---5-7-9-10---10-12---10-9---7---5-7-------|
C|-------------------------------------------------------------------------|
G|-------------------------------------------------------------------------|
C|-------------------------------------------------------------------------|
 
Guitar 2

D|-------------------------------------------------------------------------|
A|-------------------------------------------------------------------------|
F|-------------------------------------------------------------------------|
C|-33333333555532000000000000000022----------------------------------------|
G|-33333333555532000000000000000022----------------------------------------|
C|-33333333555532000000000000000022----------------------------------------| X4

VERSE 2

Guitar 1

D|-------------------------------------------------------------------------|
A|-------------------------------------------------------------------------|
F|-9--------------9-8-9--------------9-8-9--------------9-10-9-------------|
C|-9--------------9-8-9--------------9-8-9--------------9-10-9-------------|
G|-7-000000000000-7-6-7-000000000000-7-6-7-000000000000-7-8--7-000000000000|
C|---000000000000-------000000000000-------000000000000--------000000000000|
     ............       ............       ............        ............

D|-------------------------------------------------------------------------|
A|-------------------------------------------------------------------------|
F|-9-8-7-------------------------------------------------------------------|
C|-9-8-7-------------------------------------------------------------------|
G|-7-6-5-------------------------------------------------------------------|
C|-------------------------------------------------------------------------|

D|-------------------------------------------------------------------------|
A|-------------------------------------------------------------------------|
F|----------------8----------------7----------------6----------------------|
C|----------------8----------------7----------------6----------------------|
G|-0-0000-00-0000-6-0-0000-00-0000-5-0-0000-00-0000-4----------------------|
C|-0-0000-00-0000---0-0000-00-0000---0-0000-00-0000------------------------|
   . .... .. ....   . .... .. ....   . .... .. ....

D|-------------------------------------------------------------------------|
A|-------------------------------------------------------------------------|
F|----------------9----------------8----------------7----------------6-----|
C|----------------9----------------8----------------7----------------6-----|
G|-0-0000-00-0000-7-0-0000-00-0000-6-0-0000-00-0000-5-0-0000-00-0000-4-----|
C|-0-0000-00-0000---0-0000-00-0000---0-0000-00-0000---0-0000-00-0000-------|
   . .... .. ....   . .... .. ....   . .... .. ....   . .... .. ....

D|-------------------------------------------------------------------------|
A|-------------------------------------------------------------------------|
F|-------------------------------------------------------------------------|
C|-------------------------------------------------------------------------|
G|-0-0000-00-0000----------------------------------------------------------|
C|-0-0000-00-0000----------------------------------------------------------|
   . .... .. ....   

Guitar 2

D|-------------------------------------------------------------------------|
A|-------------------------------------------------------------------------|
F|-9--------------9-8-9--------------9-8-9--------------9-10-9-------------|
C|-9--------------9-8-9--------------9-8-9--------------9-10-9-------------|
G|-7-000000000000-7-6-7-000000000000-7-6-7-000000000000-7-8--7-000000000000|
C|---000000000000-------000000000000-------000000000000--------000000000000|
     ............       ............       ............        ............

D|-------------------------------------------------------------------------|
A|-------------------------------------------------------------------------|
F|-9-8-7-------------------------------------------------------------------|
C|-9-8-7-------------------------------------------------------------------|
G|-7-6-5-------------------------------------------------------------------|
C|-------------------------------------------------------------------------|
D|-------------------------------------------------------------------------|
A|-------------------------------------------------------------------------|
F|----------------8----------------7----------------6----------------------|
C|----------------8----------------7----------------6----------------------|
G|-0-0000-00-0000-6-0-0000-00-0000-5-0-0000-00-0000-4----------------------|
C|-0-0000-00-0000---0-0000-00-0000---0-0000-00-0000------------------------|
   . .... .. ....   . .... .. ....   . .... .. ....

D|-------------------------------------------------------------------------|
A|-------------------------------------------------------------------------|
F|----------------9----------------8----------------7----------------6-----|
C|----------------9----------------8----------------7----------------6-----|
G|-0-0000-00-0000-7-0-0000-00-0000-6-0-0000-00-0000-5-0-0000-00-0000-4-----|
C|-0-0000-00-0000---0-0000-00-0000---0-0000-00-0000---0-0000-00-0000-------|
   . .... .. ....   . .... .. ....   . .... .. ....   . .... .. ....

D|-------------------------------------------------------------------------|
A|-------------------------------------------------------------------------|
F|-------------------------------------------------------------------------|
C|-------------------------------------------------------------------------|
G|-0-0000-00-0000----------------------------------------------------------|
C|-0-0000-00-0000----------------------------------------------------------|
   . .... .. ....   

CHORUS

D|-------------------------------------------------------------------------|
A|-------------------------------------------------------------------------|
F|-9-10---10-12---10-9---7---5-7---5-7-9-10---10-12---10-9---7---5-7-------|
C|-------------------------------------------------------------------------|
G|-------------------------------------------------------------------------|
C|-------------------------------------------------------------------------|

D|-------------------------------------------------------------------------|
A|-------------------------------------------------------------------------|
F|-9-10---10-12---15-14---12---15-14-12-10---9---10---10-12---10-9---7-----|
C|-------------------------------------------------------------------------|
G|-------------------------------------------------------------------------|
C|-------------------------------------------------------------------------|

D|-------------------------------------------------------------------------|
A|-------------------------------------------------------------------------|
F|-9-10---10-12---10-9---7---5-7---5-7-9-10---10-12---10-9---7---5-7-------|
C|-------------------------------------------------------------------------|
G|-------------------------------------------------------------------------|
C|-------------------------------------------------------------------------|

Guitar 2

D|-------------------------------------------------------------------------|
A|-------------------------------------------------------------------------|
F|-------------------------------------------------------------------------|
C|-33333333555532000000000000000022----------------------------------------|
G|-33333333555532000000000000000022----------------------------------------|
C|-33333333555532000000000000000022----------------------------------------| X4

BREAKDOWN

Guitar 1

D|-------------------------------------------------------------------------|
A|-------------------------------------------------------------------------|
F|-------------------------10101010-------------------------12121212-------|
C|-3-2-1-2-3-2-1-2-3-2-1-2-8-8-8-8--3-2-1-2-3-2-1-2-3-2-1-2-12121212-------|
G|-3-2-1-2-3-2-1-2-3-2-1-2-8-8-8-8--3-2-1-2-3-2-1-2-3-2-1-2-10101010-------|
C|-3-2-1-2-3-2-1-2-3-2-1-2----------3-2-1-2-3-2-1-2-3-2-1-2----------------|
   . . . . . . . . . . . .          . . . . . . . . . . . . 

D|-------------------------------------------------------------------------|
A|-------------------------------------------------------------------------|
F|-------------------------8-8-8-8--------------------------6-6-6-6--------|
C|-3-2-1-2-3-2-1-2-3-2-1-2-8-8-8-8--3-2-1-2-3-2-1-2-3-2-1-2-6-6-6-6--------|
G|-3-2-1-2-3-2-1-2-3-2-1-2-6-6-6-6--3-2-1-2-3-2-1-2-3-2-1-2-4-4-4-4--------|
C|-3-2-1-2-3-2-1-2-3-2-1-2----------3-2-1-2-3-2-1-2-3-2-1-2----------------|
   . . . . . . . . . . . .          . . . . . . . . . . . . 

D|-------------------------------------------------------------------------|
A|-------------------------------------------------------------------------|
F|-------------------------------------------------------------------------|
C|-3-2-1-2---3-2-1-2---3-2-1-2-------------3-2-1-2-------------------------|
G|-3-2-1-2---3-2-1-2---3-2-1-2---000-000---3-2-1-2---000-------------------|
C|-3-2-1-2---3-2-1-2---3-2-1-2---000-000---3-2-1-2---000-------------------|
   . . . .   . . . .   . . . .   ... ...   . . . .   ...

Guitar 2

D|-------------------------------------------------------------------------|
A|-------------------------------------------------------------------------|
F|-------------------------10101010-------------------------12121212-------|
C|-3-2-1-2-3-2-1-2-3-2-1-2-8-8-8-8--3-2-1-2-3-2-1-2-3-2-1-2-12121212-------|
G|-3-2-1-2-3-2-1-2-3-2-1-2-8-8-8-8--3-2-1-2-3-2-1-2-3-2-1-2-10101010-------|
C|-3-2-1-2-3-2-1-2-3-2-1-2----------3-2-1-2-3-2-1-2-3-2-1-2----------------|
   . . . . . . . . . . . .          . . . . . . . . . . . . 

D|-------------------------------------------------------------------------|
A|-------------------------------------------------------------------------|
F|-------------------------8-8-8-8--------------------------6-6-6-6--------|
C|-3-2-1-2-3-2-1-2-3-2-1-2-8-8-8-8--3-2-1-2-3-2-1-2-3-2-1-2-6-6-6-6--------|
G|-3-2-1-2-3-2-1-2-3-2-1-2-6-6-6-6--3-2-1-2-3-2-1-2-3-2-1-2-4-4-4-4--------|
C|-3-2-1-2-3-2-1-2-3-2-1-2----------3-2-1-2-3-2-1-2-3-2-1-2----------------|
   . . . . . . . . . . . .          . . . . . . . . . . . . 

D|-------------------------------------------------------------------------|
A|-------------------------------------------------------------------------|
F|-------------------------------------------------------------------------|
C|-3-2-1-2---3-2-1-2---3-2-1-2-------------3-2-1-2-------------------------|
G|-3-2-1-2---3-2-1-2---3-2-1-2---000-000---3-2-1-2---000-------------------|
C|-3-2-1-2---3-2-1-2---3-2-1-2---000-000---3-2-1-2---000-------------------|
   . . . .   . . . .   . . . .   ... ...   . . . .   ...

| /   slide up
| \   slide down
| h   hammer-on
| p   pull-off
| ~   vibrato
| +   harmonic
| .   Mute note
| b   Bend
| pb  Pre-bend
| br  Bend release
| pbr Pre-bend release
| brb Bend release bend
Добавлено: 04.07.2012
Другие материалы по этой песне:
  • Аккорды и текст

Страница создана 04.07.2012
http://primanota.ru/beneath-the-sky/the-belle-of-the-ball-chords.htm
Привет, Гость.
Предлагаем пройти революционный курс по гитаре.
Подарок от PrimaNota.Ru, забирай!