PrimaNota.ru - самый крупный в мире бесплатный архив песенных текстов, аккордов, табулатур и нот


Beneath The Sky - Terror Starts At Home - таба, видео

Регистрация Запомнить меня
Войти через:  Facebook Google Twitter Vk Yandex Mail.ru

Beneath The Sky - Terror Starts At Home - таба, видео

Печатать
Просмотров: 241
Artist: Beneath the Sky

Song: Terror Starts At Home

Album: In Loving Memory

Tabbed by: SensesFail_Dude

Tuning: Drop C (CGCFAD)

Notes: This song is fairly simple, but really fun to play =]

x : palm mute
~ : hold down note
H : Hammer On
P : Pull Off





Intro 0:00 - 0:01
|-----------------------------------|
|-----------------------------------|
|-----------------------------------|
|-----------------------------------|
|--0---4--3---0---3--2--------------|
|--0---4--3---0---3--2--------------|
   x              x


Verse 4x's 0:02 - 0:28
|-----------------------|------------------------------------|
|------do this 3x's-----|------------------------------------|
|-----------------------|------------------------------------|
|-----------------------|------------------------------------|
|--000000-----1p0---4p3-|----0---4--3---0---3--2-------------|
|--000000-----1p0---4p3-|----0---4--3---0---3--2-------------|
   xxxxxx                    x          x


0:29 - 0:56
|------------------------------------------------------------|
|------------------------------------------------------------|
|--77777777--10101010--1111111111111111--66666666------------| 4x's
|--xxxxxxxx--x-x-x-x---x-x-x-x-x-x-x-x---xxxxxxxx------------|
|--55555555--8-8-8-8---9-9-9-9-9-9-9-9---44444444------------|
|------------------------------------------------------------|


0:57 - 1:03
|-------------------------------------------------------------------------|
|-------------------------------------------------------------------------|
|-------------------------------------------------------------------------|
|-------------------------------------------------------------------------|
|-000000000000-----0000000000---000000000----0-4-3---0-3-2----------------|
|-000000000000-----0000000000---000000000----0-4-3---0-3-2----------------|
  xxxxxxxxxxxx     xxxxxxxxxx   xxxxxxxxx    x       x




(the first time comes out of the left guitar,
and the second time the right,
and the third time is just the bass)
1:04 - 1:08
|-----------------------|----------------|
|------do this 2x's-----|----------------|
|-----------------------|----------------|
|-----------------------|----------------|
|--000000-----1p0---4p3-|-000000000------|
|--000000-----1p0---4p3-|-000000000------|
   xxxxxx                 xxxxxxxxx                                        

1:09 - 1:11
|-----------------------------------|
|-----------------------------------|
|-----------------------------------|
|-----------------------------------|
|--0---4--3---0---3--2--------------|
|--0---4--3---0---3--2--------------|
   x              x



1:12 - 1:24
|-----------------------|------------------------------------|
|------do this 3x's-----|------------------------------------|
|-----------------------|------------------------------------|2x's
|-----------------------|------------------------------------|
|--000000-----1p0---4p3-|----0---4--3---0---3--2-------------|
|--000000-----1p0---4p3-|----0---4--3---0---3--2-------------|
   xxxxxx                    x          x


1:25 - 1:49
|------------------------------------------------------------|
|------------------------------------------------------------|
|--77777777--10101010--1111111111111111--66666666------------| 4x's
|--xxxxxxxx--x-x-x-x---x-x-x-x-x-x-x-x---xxxxxxxx------------|
|--55555555--8-8-8-8---9-9-9-9-9-9-9-9---44444444------------|
|------------------------------------------------------------|


BREAKDOWN!
bassically this is how it goes, 
just figure out the rhythm
1:50 - 2:08
|-------------------------------------------|--------------------------|
|-------------------------------------------|--------------------------|
|-------------------------------------------|--------------------------|
|-------------------------------------------|--------------------------|
|-000000000000-000000000000--000000---000000|--1~--4~--3~--------------|
|-000000000000-000000000000--000000---000000|--1~--4~--3~--------------|
  xxxxxxxxxxxx xxxxxxxxxxxx  xxxxxx   xxxxxx



2:09 - 2:37
|----------------------------|---------------|
|----------------------------|---------------|
|----------------------------|---------------|
|----------------------------|---------------|8x's
|-0--------------------------|-7~--4~-3~-----|
|-0-0h1p0h3p0h1p0h3p0-1h3p1p0|-7~--4~-3~-----|



Breakdown 2/outro
2:38 - 3:00
|-------------------------------------------------------|-----------------|
|-------------------------------------------------------|-----------------|
|-------------------------------------------------------|-----------------|
|-------------------------------------------------------|-----------------|
|-00----00---00-00-0--00----00---00-00-0--00----00--00-0|-7~--4~--3~------|
|-00----00---00-00-0--00----00---00-00-0--00----00--00-0|-7~--4~--3~------|
  xx    xx   xx xx x  xx    xx   xx xx x  xx    xx  xx x



end on this
3:01
|--------------|
|--------------|
|--------------|
|--------------|
|--00----------|
|--00----------|


So thats the tab!
pretty simple!
please rate/comment
and also check out my other tabs! 
thanks
Добавлено: 25.03.2012
Другие материалы по этой песне:
  • Аккорды и текст

Страница создана 25.03.2012
http://primanota.ru/beneath-the-sky/terror-starts-at-home-chords.htm
Привет, Гость.
Предлагаем пройти революционный курс по гитаре.
Подарок от PrimaNota.Ru, забирай!