PrimaNota.ru - самый крупный в мире бесплатный архив песенных текстов, аккордов, табулатур и нот


Beneath The Sky - Respect For The Dead - таба, видео

Регистрация Запомнить меня
Войти через:  Facebook Google Twitter Vk Yandex Mail.ru

Beneath The Sky - Respect For The Dead - таба, видео

Печатать
Просмотров: 115
D|------------------------------------|-------------------------------------|
A|------------------------------------|-------------------------------------|
F|------------------------------------|-------------------------------------|
C|------------------------------------|-------------------------------------|
G|--5-5-5-3-3-3-3-3h5-5-5-5-3-3-6-6-5-|-2-2-2-3-3-3-5-5h3-2-2-2-3-3-3-2h3p2-|
D|--4-4-4-4-4-4-4-4---4-4-4-4-4-4-4-4-|-3-3-3-3-3-3-3-3---3-3-3-3-3-3-3-----|
 
 |____________________________________X2____________________________________|          
                

D|------------------------------------|-------------------------------------|
A|------------------------------------|-------------------------------------|
F|------------------------------------|-------------------------------------|
C|------------------------------5-5-3-|-------------------------------------|
G|--5-5-5-3-3-3-3-3h5-5-5-5-3-3-3-3-5-|-2-2-2-3-3-3-5-5h3-2-2-2-3-3-3-2h3p2-|
D|--4-4-4-4-4-4-4-4---4-4-4-4-4-4-4-4-|-3-3-3-3-3-3-3-3---3-3-3-3-3-3-3-----|




D|------------------------------------|
A|------------------------------------|
F|------------------------------------|
C|------------------0-0-0-0-5h6p5-3-5-|
G|--1-1-1-1-1-1-1-1-1-1-1-1-----------|
D|--2-2-2-2-2-2-2-2-2-2-2-2-----------|




D|--------------------------------|--------------------------------|
A|--4-----4---3-----3--3h4-3------|--4-----4---3-----3--3h4-3---4-3|
F|----5---------4------------5----|----5---------4------------5----|
C|------5---------5------------6-5|------5---------5---------------|
G|--------------------------------|--------------------------------|
A|--------------------------------|--------------------------------|



D|-----------------------------------|--4-----4---6-----6--6h8-6-------|
A|--8------8---6-----6--6h8-6--------|----4---------8------------9-8-8-|
F|----8----------7------------8------|------5---------8----------------|
C|------10---------8------------10-9-|---------------------------------|
G|-----------------------------------|---------------------------------|
D|-----------------------------------|---------------------------------|



D|--------------------------------------|
A|--6-----6--9---8-----6-----6--5-----5-|
F|----5--------8---8-----5--------5-----|
C|------6------------------6--------5---|
G|--------------------------------------|
D|--------------------------------------|

 |________________X3____________________| 


D|-----------8-----8--7-----7-----7---7--------|
A|--6-----6----9--------8-----8-----8----------|
F|----5----------8--------7-----7--------0-0---|
C|------6--------------------------------------|
G|---------------------------------------------|
D|---------------------------------------------|



D|--6------5-----1----------------------|
A|----5------5-----1--------------------|
F|------6------5-----1h2-3--------------|
C|--------------------------------------|
G|--------------------------------------| 
D|--------------------------------------|

"THEY ARE COMING TO GET YOU BARBARA !!"

For any tab from beneath the sky please advice me :D
Добавлено: 31.03.2012
Вам также может быть интересно:
Другие материалы по этой песне:

Страница создана 31.03.2012
http://primanota.ru/beneath-the-sky/respect-for-the-dead-chords.htm
Привет, Гость.
Предлагаем пройти революционный курс по гитаре.
Подарок от PrimaNota.Ru, забирай!