PrimaNota.ru - самый крупный в мире бесплатный архив песенных текстов, аккордов, табулатур и нот


Beneath The Sky - Nature Of The Beast - текст песни, таба, видео

Регистрация Запомнить меня
Войти через:  Facebook Google Twitter Vk Yandex Mail.ru

Beneath The Sky - Nature Of The Beast - текст песни, таба, видео

Печатать
Просмотров: 171
Beneath the Sky
Nature of the Beast
Guitar I (CGCFAD)
Guitar II(CGCFAD)

Note: Strumming might not be rite or there but you can easily figure it out


Zombie Intro

 Both Guitars
|--------------------------------|
|--------------------------------|
|--------------------------------|
|-33--33--3333-33---333333-3333--|
|-33--33--3333-33---333333-3333--|
|-33--33--3333-33---333333-3333--|
PM~~~~~~~~~~~~~~~~~~~~~~~~~~~~~


Intro

 Both Guitars
|--------------------------------------------------------------------|
|--------------------------------------------------------------------|
|--------------------------------------------------------------------|
|-0---0---0000-00---000000-0000-00-0---0---0000-00---000000-0000-00--|
|-0---0---0000-00---000000-0000-00-0---0---0000-00---000000-0000-00--|
|-0---0---0000-00---000000-0000-00-0---0---0000-00---000000-0000-00--|
PM~~~~~~~~~~~~~~~~~~~~~~~~~~~~~~~~~~~~~~~~~~~~~~~~~~~~~~~~~~~~~~~~~~~

|--------------------------------------------------------------------|
|--------------------------------------------------------------------|
|--------------------------------------------------------------------|
|-33--33--3333-33---333333-3333-33-33--33--3333-33---333333-3---1----|
|-33--33--3333-33---333333-3333-33-33--33--3333-33---333333-3---1----|
|-33--33--3333-33---333333-3333-33-33--33--3333-33---333333-3---1----|
PM~~~~~~~~~~~~~~~~~~~~~~~~~~~~~~~~~~~~~~~~~~~~~~~~~~~~~~~~~~~~~~~~~~~

|--------------------------------------------------------------------|
|--------------------------------------------------------------------|
|--------------------------------------------------------------------|
|-0---0---0000-00---000000-0000-00-0---0---0000-00---000000-0000-00--|
|-0---0---0000-00---000000-0000-00-0---0---0000-00---000000-0000-00--|
|-0---0---0000-00---000000-0000-00-0---0---0000-00---000000-0000-00--|
PM~~~~~~~~~~~~~~~~~~~~~~~~~~~~~~~~~~~~~~~~~~~~~~~~~~~~~~~~~~~~~~~~~~~

|--------------------------------------------------------------------|
|--------------------------------------------------------------------|
|--------------------------------------------------------------------|
|-33--33--3333-33---333333-3333-33-33--33--3333-33---333333-3---1----|
|-33--33--3333-33---333333-3333-33-33--33--3333-33---333333-3---1----|
|-33--33--3333-33---333333-3333-33-33--33--3333-33---333333-3---1----|
PM~~~~~~~~~~~~~~~~~~~~~~~~~~~~~~~~~~~~~~~~~~~~~~~~~~~~~~~~~~~~~~~~~~~

|----------------------------------------------------------------------|
|----------------------------------------------------------------------|
|----------------------------------------------------------------------|
|-0---0---0000-00---000000-0000-00-0---0---0000-01~--0-0---0000-00-0~--|
|-0---0---0000-00---000000-0000-00-0---0---0000-01~--0-0---0000-00-0~--|
|-0---0---0000-00---000000-0000-00-0---0---0000-01~--0-0---0000-00-0~--|
PM~~~~~~~~~~~~~~~~~~~~~~~~~~~~~~~~~~~~~~~~~~~~~~~    ~~~~~~~~~~~~~

|--------------------|
|--------------------|
|--------------------|
|-0~---0~---5~--3~---|
|-0~---0~---5~--3~---|
|-0~---0~---5~--3~---|


Verse

 Guitar I
|----------------------------------------------------------------------|
|----------------------------------------------------------------------|
|--------7---7/9----9/10----10/12---------12--12/10----10/9----9/7-----|
|-0-0----x---x/x----x/-x-----x/-x---0-0----x---x/-x-----x/x----x/x-----|
|-0-0----5---5/7----7/-8-----8/10---0-0---10--10/-8-----8/7----7/5-----|
|-0-0------------00------00---------0-0-------------00------00---------|
|              PM~~      ~~                         ~~      ~~
|Guitar II
|--------------------------------------------------------------------------|
|--------------------------------------------------------------------------|
|-------10--10/12----12/14----14/15----------15---15/14----14/12----12/10--|
|-0-0----x---x/-x-----x/-x-----x/-x---0-0-----x----x/-x-----x/-x-----x/-x--|
|-0-0----8---8/10----10/12----12/13---0-0----13---13/12----12/10----10/-8--|
|-0-0-------------00-------00---------0-0---------------00-------00--------|
                PM~~       ~~                           ~~       ~~
 Guitar I
|------------------------------------------------------------------|
|------------------------------------------------------------------|
|-------10--9--10--12---9---------------14--12--14--15---14--------|
|-0-0----x--x---x---x---x---------0-0----x---x---x---x----x--------|
|-0-0----8--7---8--10---7---------0-0---12--10--12--13---12--------|
|-0-0-----------------------------0-0------------------------------|
|
|Guitar II
|------------------------------------------------------------------|
|------------------------------------------------------------------|
|-------14--12--14--15---14-------------17--15--17--19---13--------|
|-0-0----x---x---x---x----x-------0-0----x---x---x---x----x--------|
|-0-0---12--10--12--13---12-------0-0---15--13--15--17---15--------|
|-0-0-----------------------------0-0------------------------------|


Pre-Chorous I

 Guitar I
|------------------------------------------|
|------------------------------------------|
|-7----9--10---9-10-12---10-12-14---15-----|
|-x----x---x---x--x--x----x--x--x----x-----|
|-5----7---8---7--8-10----8-10-12---13-----|
|------------------------------------------|
|
|Guitar II
|------------------------------------------|
|------------------------------------------|
|------------------------------------------|
|-0~-------3~--------5~---------7~---8~----|
|-0~-------3~--------5~---------7~---8~----|
|-0~-------3~--------5~---------7~---8~----|


Chorous

 Guitar I
|-------------------------------------------------------------|
|-------------------------------------------------------------|
|--7----14--12--10-12----14--12--10-7------7--10----9--5------|
|--x-----x---x---x--x-----x---x---x-x------x---x----x--x------|
|--5----12--10---8-10----12--10---8-5------5---8----7--3------|
|-------------------------------------------------------------|
|
|Guitar II
|-------------------------------------------------------------|
|-------------------------------------------------------------|
|-------------------------------------------------------------|
|--0----------------3---------------8------5--------7---------|
|--0----------------3---------------8------5--------7---------|
|--0----------------3---------------8------5--------7---------|

 Guitar I
|------------------------------------------------------------------------|
|------------------------------------------------------------------------|
|--7--7---14--14---12--12--10101010---7--7---14--14---12--12--10101010---|
|--x--x----x---x----x---x---x-x-x-x---x--x----x---x----x---x---x-x-x-x---|
|--5--5---12--12---10--10---8-8-8-8---5--5---12--12---10--10---8-8-8-8---|
|------------------------------------------------------------------------|
|
|Guitar II
|------------------------------------------------------------------------|
|------------------------------------------------------------------------|
|------------------------------------------------------------------------|
|--0----------------------------------3----------------------------------|
|--0----------------------------------3----------------------------------|
|--0----------------------------------3----------------------------------|
PM~~~~~~~~~~~~~~~~~~~~~~~~~~~~~~~~~~~~~~~~~~~~~~~~~~~~~~~~~~~~~~~~~~~~~~~

 Guitar I
|--------------------------------------------------------------------------|
|--------------------------------------------------------------------------|
|--17-17---15--15---14--14--15151515---17-17---15--15---14--14--12121212---|
|---x--x----x---x----x---x---x-x-x-x----x--x----x---x----x---x---x-x-x-x---|
|--15-15---13--13---12--12--13131313---15-15---13--13---12--12--10101010---|
|--------------------------------------------------------------------------|
|
|Guitar II
|--------------------------------------------------------------------------|
|--------------------------------------------------------------------------|
|--------------------------------------------------------------------------|
|--8----------------------------------5------------------7-----------------|
|--8----------------------------------5------------------7-----------------|
|--8----------------------------------5------------------7-----------------|
PM~~~~~~~~~~~~~~~~~~~~~~~~~~~~~~~~~~~~~~~~~~~~~~~~~~~~~~~~~~~~~~~~~~~~~~~~~


Pre Chorous II

 Guitar I
|--------------------------|
|--------------------------|
|--7--------5--------7-----|
|--x--------x--------x-----|
|--5--------3--------5-----|
|--------------------------|


Outro

 Both Guitars
|-------------------------------------------|
|-------------------------------------------|
|-------------------------------------------|
|--0----------0-----------3----5----3-------|
|--0----------0-----------3----5----3-------|
|--0----------0-----------3----5----3-------|

 Guitar I
|----------------------------------------------------|
|----------------------------------------------------|
|----------------------------------------------------|
|-33--33--3333-33---333333-3333----33--33--3333-31~--|
|-33--33--3333-33---333333-3333----33--33--3333-31~--|
|-33--33--3333-33---333333-3333----33--33--3333-31~--|
|PM~~~~~~~~~~~~~~~~~~~~~~~~~~~~~~~~~~~~~~~~~~~~~~
|
|Guitar II
|----------------------------------------------------|
|----------------------------------------------------|
|----------------------------------------------------|
|-33--33--3333-33---333333-3333-2~-33--33--3333-3----|
|-33--33--3333-33---333333-3333-2~-33--33--3333-3----|
|-33--33--3333-33---333333-3333-2~-33--33--3333-3----|
PM~~~~~~~~~~~~~~~~~~~~~~~~~~~~~    ~~~~~~~~~~~~~~

 Both Guitars
|--------------------------------------------------------------------|
|--------------------------------------------------------------------|
|--------------------------------------------------------------------|
|-0---0---0000-00---000000-0000-00-0---0---0000-00---000000-0000-00--|
|-0---0---0000-00---000000-0000-00-0---0---0000-00---000000-0000-00--|
|-0---0---0000-00---000000-0000-00-0---0---0000-00---000000-0000-00--|
PM~~~~~~~~~~~~~~~~~~~~~~~~~~~~~~~~~~~~~~~~~~~~~~~~~~~~~~~~~~~~~~~~~~~

 Guitar I
|--------------------------------------------------------------------|
|--------------------------------------------------------------------|
|--------------------------------------------------------------------|
|-00--00------------000000---------00--00------------000000----------|
|-00--00------------000000---------00--00------------000000----------|
|-00--00------------000000---------00--00------------000000----------|
|PM~~~~~~~~~~~~~~~~~~~~~~~~~~~~~~~~~~~~~~~~~~~~~~~~~~~~~~~~~~~~~~~~~~~
|
|Guitar II
|--------------------------------------------------------------------|
|--------------------------------------------------------------------|
|--------------------------------------------------------------------|
|---------0000-00----------0000-00---------0000-00----------0000-00--|
|---------0000-00----------0000-00---------0000-00----------0000-00--|
|---------0000-00----------0000-00---------0000-00----------0000-00--|
PM~~~~~~~~~~~~~~~~~~~~~~~~~~~~~~~~~~~~~~~~~~~~~~~~~~~~~~~~~~~~~~~~~~~

 Both Guitars
|----------------------------------------|
|----------------------------------------|
|----------------------------------------|
|-33--33--3333-33---333333-3333-0--0--0--|
|-33--33--3333-33---333333-3333-0--0--0--|
|-33--33--3333-33---333333-3333-0--0--0--|
PM~~~~~~~~~~~~~~~~~~~~~~~~~~~~~~~~~~~~~~~
Добавлено: 23.03.2012
Другие материалы по этой песне:
  • Аккорды и текст

Страница создана 23.03.2012
http://primanota.ru/beneath-the-sky/nature-of-the-beast-chords.htm
Привет, Гость.
Предлагаем пройти революционный курс по гитаре.
Подарок от PrimaNota.Ru, забирай!