PrimaNota.ru - самый крупный в мире бесплатный архив песенных текстов, аккордов, табулатур и нот


Beneath The Sky - Misery With A Delicate Voice - таба, видео

Регистрация Запомнить меня
Войти через:  Facebook Google Twitter Vk Yandex Mail.ru

Beneath The Sky - Misery With A Delicate Voice - таба, видео

Печатать
Просмотров: 118
Song - Misery With a Delicate Voice
Artist - Beneath the Sky
Album - The Day the Music Died
Tuning - Drop C


Intro  -  (OOOHHHH!!!!!!!!!!!!)

(both guitars)
|-------------------------------------|
|-------------------------------------|
|-------------------------------------|
|-0-00-00--00000--00-00--0-00-00------|
|-0-00-00--00000--00-00--0-00-00------|x4
|-0-00-00--00000--00-00--0-00-00------|
pm. .. ..  .....  .. ..  . .. ..


VERSE


lead
|------------------------------------------------------------------------|
|------------------------------------------------------------------------|
|-----------------------------(2nd time only play "10"s instead of "7"s)-|
|-----------------------------55555555-8888-7777-------------------------|x4
|--5p0------5p0-8p0-7p0-3h5p3-55555555-8888-7777-------------------------|
|------0000-------------------55555555-8888-7777-------------------------|
PM     ....

rhythm (play 10 like before, replacing 7 on 2nd time)
(all strummed)
|---------------------------------------|
|---------------------------------------|
|---------------------------------------|
|--0--5--8--7---------------------------|x4
|--0--5--8--7---------------------------|
|--0--5--8--7---------------------------|

noise part
something like that, go back and forth between them
|-----------------|
|-----------------|
|--15---14--------|
|--X----X---------|
|--13---12--------|
|-----------------|

prechorus breakdown thing(both)
|---------------------------------|
|---------------------------------|
|---------------------------------|
|--000000000000---00000000--------|
|--000000000000---00000000--------|
|--000000000000---00000000--------|

fill
guitar 1
|-----------------|
|-----------------|
|-----------------|
|--5h7------------|
|------5h7--------|
|-----------------|

guitar 2
|-----------------|
|-----------------|
|-----------------|
|------3h5--------|
|--5h7------------|
|-----------------|

Chorus

lead
|-------------------------------------------|
|-------------------------------------------|
|--14-12-10---------------------------------|
|---X--X--X---10p8p7---10p8p7---------7h8---|
|--12-10--8----------8--------8--8h10-------|
|-------------------------------------------|

(2nd time play a single sustained 9 replacing all "10"s an "9"s)
|------------------------------------|
|------------------------------------|
|--7-12-10-77777777-10101010-9999----|
|--X--X--X---------------------------|
|--5-10--8---------------------------|x2
|------------------------------------|

Rhythm
|----------------------|
|----------------------|
|----------------------|
|--0---8-7-0---10-8----|
|--0---8-7-0---10-8----|
|--0---8-7-0---10-8----|

Verse x6

2nd chorus (same as first but with an additional lead guitar)
                                             1st end
|-------------------------------------|-------------------------------------|
|-------------------------------------|-------------------------------------|
|----14-12-10-12-10-9-----9-10--10-12-|-----14-12-10-12-10-9-----10-9-12-10-|
|-12~------------------12~------------|-12~------------------12~------------|
|-------------------------------------|-------------------------------------|
|-------------------------------------|-------------------------------------|

   2nd end
|---------------------------------------------------------------------------|
|----------------------------------12-----12-13--12-13-15b-15b-15b-13~-15b~-|
|---9-10--9-10-12--10-12-14--12-14-----14-----------------------------------|
|12-------------------------------------------------------------------------|
|---------------------------------------------------------------------------|
|---------------------------------------------------------------------------|

bridge
(strummed)
|-----------------------|
|-----------------------|
|-----------------------|
|--0---8---5---8--------|
|--0---8---5---8--------|x2
|--0---8---5---8--------|
                              This is repeated a few extra times
lead on 2nd time                     \/    for the end of the riff
|------------------------------------------|
|------------------------------------------|
|--10-12-14-12--10-12-15-14--12-10-9-10----|
|---X--X--X--X---X--x--x--X---X--X-X--X----|
|---8-10-12-10---8-10-13-12--10--8-7--8----|
|------------------------------------------|

...and then
|--------------------------------------------------------------|
|--------------------------------------------------------------|
|--------------------------------------------------------------|
|--0-00-00--5/7--0-00-00--8\7-8\7--0-00-00--5/7--00--7\5-5\3---|
|--0-00-00--3/5--0-00-00--6\5-6\5--0-00-00--3/5--00--5\3-3\1---|
|--0-00-00-------0-00-00-----------0-00-00-------00------------|
pm . .. ..       . .. ..           . .. ..       ..

...and then
|-------------------------------------|
|-------------------------------------|
|-------------------------------------|
|-0-00-00--00000--00-00--0-00-00------|
|-0-00-00--00000--00-00--0-00-00------|x4
|-0-00-00--00000--00-00--0-00-00------|
pm. .. ..  .....  .. ..  . .. ..

...and then
1st guitar
|--------------------------------------------------|
|--------------------------------------------------|
|--14\12-12\10-10/12-12/14--7/8-8/10-10/12-12/14---|
|---X--X--x--X--X--X--X--X--X-X-X--X--X--X--X--X---|
|--12\10-10\-8--8/10-10/12--5/6-6/-9--9/10-10/12---|
|--------------------------------------------------|

2nd guitar
|--------------------------------------------------|
|--------------------------------------------------|
|--14\12-12\10-10/12-12/14--14\12-12\10-10\8-8\7---|
|---X--x--X--X--X--X--X--X---X--X--X--X--X-X-X-X---|
|--12\10-10\-8--8/10-10/12--12\10-10\-8--8\6-6\5---|
|--------------------------------------------------|

...and then
1st guitar
|----------------------------------------------|
|----------------------------------------------|
|--10p9----10p9----10p9----10p9----10p9-10/12--|
|-------10------10------10------10-------------|
|----------------------------------------------|
|----------------------------------------------|

|----------------------------------------------|
|----------------------------------------------|
|--10p9----10p9----10p9----10p9----10p9--------|
|-------10------10------10------10------10~----|
|----------------------------------------------|
|----------------------------------------------|

|--------------------------------------------------------|
|--------------------------------------------------------|
|--10p9----10p9----10p9----10p9----10p9-10/12--10-9------|
|-------10------10------10------10------------------10~--|
|--------------------------------------------------------|x2
|--------------------------------------------------------|

Harmony (play only second time through)
(not 100% on this part)
|------------------------------------------|
|------------------------------------------|
|--10p8---10p8---10p8---10p8---10p8-10/12--|
|-------9------9------9------9-------------|
|------------------------------------------|
|------------------------------------------|

|-------------------------------------------|
|--10p8---10p8---10p8--10p8---10p8----------|
|-------9------9------9------9------9~------|
|-------------------------------------------|
|-------------------------------------------|
|-------------------------------------------|

|--------------------------------------------------------|
|--10p8-10/12-10p8-10/12-10p8-10/12-10p8-10/12-10-12-----|
|----------------------------------------------------9~--|
|--------------------------------------------------------|
|--------------------------------------------------------|
|--------------------------------------------------------|

...and then
(they're 10s, not 1s and 0s)
|-------------------------------------|
|-------------------------------------|
|-------------------------------------|
|--10101010101010--0~-----1010-1010---|
|--10101010101010--0~-----1010-1010---|
|--10101010101010--0~-----1010-1010---|


...and then
(will you, will you, will you...)
lead (same amount of strums as rhythm)
|-------------------------------------|
|-------------------------------------|
|--10--7--10--7--10--9----------------|
|---X--X---X--X---X--X----------------|
|---8--5---8--5---8--7----------------|x2
|-------------------------------------|

rhythm
|---------------------------------------------------------------------|
|---------------------------------------------------------------------|
|---------------------------------------------------------------------|
|--12121212--8888--12121212--8888--1212121212121212-1010101010101010--|
|--12121212--8888--12121212--8888--1212121212121212-1010101010101010--|
|--12121212--8888--12121212--8888--1212121212121212-1010101010101010--|x2

...and then
lead            x3   then x1 and back      then this end
|-------------------|-------------------|-----------|
|-------------------|-------------------|-----------|
|--10-9-10/12\10-9--|--10-9-10-10-9-10--|--10~-9~---|
|-------------------|-------------------|-----------|
|-------------------|-------------------|-----------|
|-------------------|-------------------|-----------|

|------------------------------------------------------------|
|------------------------------------------------------------|
|------10-9--------10-9--------10-9-------10-9----9-10-9-----|
|--12~------12----------12----------12---------12--------12~-|
|--------------12~---------13~---------8~--------------------|
|------------------------------------------------------------|

Rhythm
|-------------------|
|-------------------|
|-------------------|
|--0---8---3---10---|
|--0---8---3---10---|
|--0---8---3---10---|

...and then
lead
|----------------------------------------------------------------------|
|----------------------------------------------------------------------|
|--10-1010101010-9/1010-1010101010/12/14-1414141414/15\12-1212121212---|
|---X--X-X-X-X-X-X--X-X--X-X-X-X-X--X--X--X-X-X-X-X--X--X--X-X-X-X-X---|
|---8--8-8-8-8-8-7/-8-8--8-8-8-8-8/10/12-1212121212/13\10-1010101010---|
|----------------------------------------------------------------------|

|---------------------------------------------------------------|
|---------------------------------------------------------------|
|--10-1010101010-9/1010-1010101010/12/-1414--1414--1212--1212---|
|---X--X-X-X-X-X-X--X-X--X-X-X-X-X--X---X-X---X-X---X-X---X-X---|
|---8--8-8-8-8-8-7/-8-8--8-8-8-8-8/10/-1212--1212--1010--1010---|
|---------------------------------------------------------------|


Rhythm                        end with....
|-------------------|----------------------|
|-------------------|----------------------|
|-------------------|----------------------|
|--0---8---3---10---|--33--33--1010--1010--|
|--0---8---3---10---|--33--33--1010--1010--|
|--0---8---3---10---|--33--33--1010--1010--|

...and then
both guitars end on
|------------|
|------------|
|------------|
|--0~~~------|
|--0~~~------|
|--0~~~------|


...no and then


enjoi, comments and corrections are welcome
Добавлено: 12.06.2012
Другие материалы по этой песне:
  • Аккорды и текст

Страница создана 12.06.2012
http://primanota.ru/beneath-the-sky/misery-with-a-delicate-voice-chords.htm
Привет, Гость.
Предлагаем пройти революционный курс по гитаре.
Подарок от PrimaNota.Ru, забирай!