PrimaNota.ru - самый крупный в мире бесплатный архив песенных текстов, аккордов, табулатур и нот


Beneath The Sky - It All Ends With A Smile - таба, видео

Регистрация Запомнить меня
Войти через:  Facebook Google Twitter Vk Yandex Mail.ru

Beneath The Sky - It All Ends With A Smile - таба, видео

Печатать
Просмотров: 136
This tab is for It all ends with a smile by beneath the sky, from their the day the 
music died album. Fantastic song, great fun to tab, took me ages though, still, have fun :) 
Contact me if you think there are any mistakes. Atreyudrksthour

INTRO (0.00)

Guitar 1

D|--------------------------------------|
A|--------------------------------------|
F|-----15-14-14---15-14-14---15-14-10---|
C|-0------------------------------------|
G|-0---13-12-12---13-12-12---13-12--8---|
C|-0------------------------------------|

D|--------------------------------------|
A|--------------------------------------|
F|-----15-14-14---15-14-14---15-14-17---|
C|-0------------------------------------|
G|-0---13-12-12---13-12-12---13-12-15---|
C|-0------------------------------------|

Guitar 1 does this ^^ twice before guitar 2 comes in

And then it goes

Guitar 1

D|-------------------------------------|
A|-------------------------------------|
F|-----15-14-14---15-14-----15-14-10---|
C|-0--------------------0--------------|
G|-0---13-12-12---13-12-0---13-12--8---|
C|-0--------------------0--------------|

D|--------------------------------------|
A|--------------------------------------|
F|-----15-14-14---15-14-----15-14-17-15-|
C|-0--------------------0---------------|
G|-0---13-12-12---13-12-0---13-12-15-13-|
C|-0--------------------0---------------|

Guitar 2

D|-------------------------------------|
A|-------------------------------------|
F|-----16-15-15---16-15-----16-14-11---|
C|-0--------------------0--------------|
G|-0---14-13-13---14-13-0---14-13--9---|
C|-0--------------------0--------------|

D|--------------------------------------|
A|--------------------------------------|
F|-----16-15-15---16-15-----16-14-18-16-|
C|-0--------------------0---------------|
G|-0---14-13-13---14-13-0---14-13-16-14-|
C|-0--------------------0---------------|

VERSE 1 (0.25)

Guitar 1

D|----------------------------------------------------------------|
A|----------------------------------------------------------------|
F|----------------------------------------------------------------|
C|----------------------------------------------------------------|
G|-0--------------------------------------------------------------|
C|-0---10--0-12-0-13-0-12-0-13-0-12-10-/12-0-13-0-12-0-13-0-12-10-| x2

On the second time round, guitar 2 does:

D|---|
A|---|
F|---|
C|---|
G|-0-|
C|-0-|

Work out the strumming pattern for that ^^

Then both guitars come in fully:

Guitar 1

D|----------------------------------------------------------------|
A|----------------------------------------------------------------|
F|----------------------------------------------------------------|
C|----------------------------------------------------------------|
G|-0---10--0-12-0-13-0-12-0-13-0-12-10-/12-0-13-0-12-0-13-0-12-10-|
C|-0---10--0-12-0-13-0-12-0-13-0-12-10-/12-0-13-0-12-0-13-0-12-10-| x4

Guitar 2

D|----------------------------------------------------------------|
A|----------------------------------------------------------------|
F|----------------------------------------------------------------|
C|----------------------------------------------------------------|
G|-0---10--0-12-0-13-0-12-0-13-0-12-10-/12-0-13-0-12-0-13-0-12-10-|
C|-0---10--0-12-0-13-0-12-0-13-0-12-10-/12-0-13-0-12-0-13-0-12-10-| x2
On the last 2 cycles of guitar 1's riff, guitar 2 does something like this:
Guitar 2
D|---------------------------------------------------------------|
A|---------------------------------------------------------------|
F|-0-7-0-9-0-7-0-9-0-7-0-5---0-7-0-9-0-7-0-9-0-7-0-5-------------|
C|---------------------------------------------------------------|
G|---------------------------------------------------------------|
C|---------------------------------------------------------------| x2

This bit ^^ is tremolo picked

PRE-CHORUS PART 1(0.51)

Guitar 1

D|---------------------------------------------------------|
A|---------------------------------------------------------|
F|---------------------------------------------------------|
C|---------------------------------------------------------|
G|-0---0-0---000-0-0-0---000-0-0-0---000-0-0-0---000-0-0-0-|
C|-0---0-0---000-0-0-0---000-0-0-0---000-0-0-0---000-0-0-0-|
       . .   ...   . .   ...   . .   ...   . .   ...   . .

Guitar 2

D|---------------------------------------------------------|
A|---------------------------------------------------------|
F|---------------------------------------------------------|
C|---------------------------------------------------------|
G|-0---0-0---000-0-0-0---000-0-0-0---000-0-0-0---000-0-0-0-|
C|-0---0-0---000-0-0-0---000-0-0-0---000-0-0-0---000-0-0-0-|
       . .   ...   . .   ...   . .   ...   . .   ...   . .

Then this happens:

Guitar 1

D|------------------------------------------------------------|
A|------------------------------------------------------------|
F|------------------------------------------------------------|
C|------------------------------------------------------------|
G|------------------------------------------------------------|
C|-10--0-12-0-13-0-12-0-13-0-12-10-/12-0-13-0-12-0-13-0-12-10-| x2
   .   . .  . .  . .  . .  . .  .   .  . .  . .  . .  . .  .

Guitar 2

D|-------------------------------------|
A|-------------------------------------|
F|-------------------------------------|
C|-------------------------------------|
G|-000-0-0-0---000-0-0-0---000-0-0-0---|
C|-000-0-0-0---000-0-0-0---000-0-0-0---|
   ...   . .   ...   . .   ...   . .

PRE-CHORUS PART 2 (1.06)

Guitar 1

D|-------------------------------------------------|
A|-------------------------------------------------|
F|-17-17-17-17-17-17-17-17-15-15-15-15-14-14-14-14-|
C|-------------------------------------------------|
G|-15-15-15-15-15-15-15-15-13-13-13-13-12-12-12-12-|
C|-------------------------------------------------|

D|-------------------------------------------------|
A|-------------------------------------------------|
F|-17-17-17-17-17-17-17-17-10-10-10-10-9-9-9-9-----|
C|-------------------------------------------------|
G|-15-15-15-15-15-15-15-15--8--8--8--8-7-7-7-7-----|
C|-------------------------------------------------|

D|-------------------------------------------------|
A|-------------------------------------------------|
F|-17-17-17-17-17-17-17-17-15-15-15-15-14-14-14-14-|
C|-------------------------------------------------|
G|-15-15-15-15-15-15-15-15-13-13-13-13-12-12-12-12-|
C|-------------------------------------------------|

D|-------------------------------------------------|
A|-------------------------------------------------|
F|-17-17-17-17-17-17-17-17-19-19-19-19-19-19-19-19-|
C|-------------------------------------------------|
G|-15-15-15-15-15-15-15-15-17-17-17-17-17-17-17-17-|
C|-------------------------------------------------|

Guitar 2

D|------------------------------|
A|------------------------------|
F|------------------------------|
C|------------------------------|
G|-0000000011113333333311110000-|
C|-0000000011113333333311110000-|

These are 1s, 3s and 0s, NOT 11s, 13s and 10s

CHORUS (1.23)

Guitar 1

D|--------------------------------------------|
A|--------------------------------------------|
F|---7-9-10-14-15-10---7-8-12-9-9-9-9-9-9-9-9-|
C|-5-----------------3------------------------|
G|-5-5-7--8-12-13--8-3-5-6-10-7-7-7-7-7-7-7-7-|
C|-5-----------------3------------------------|

Work out the pattern for this, its pretty simple

D|-------------------------------|
A|-------------------------------|
F|---7-9-10-14-15-10-19-19-17-15-|
C|-5-----------------------------|
G|-5-5-7--8-12-13--8-17-17-15-13-|
C|-5-----------------------------|

Guitar 2

D|------------------------------|
A|------------------------------|
F|------------------------------|
C|------------------------------|
G|-0000000011113333333311110000-|
C|-0000000011113333333311110000-| x2

VERSE 2 (1.39)

Guitar 1

D|----------------------------------------------------------------|
A|----------------------------------------------------------------|
F|----------------------------------------------------------------|
C|----------------------------------------------------------------|
G|-0---10--0-12-0-13-0-12-0-13-0-12-10-/12-0-13-0-12-0-13-0-12-10-|
C|-0---10--0-12-0-13-0-12-0-13-0-12-10-/12-0-13-0-12-0-13-0-12-10-| x4

Guitar 2

D|----------------------------------------------------------------|
A|----------------------------------------------------------------|
F|----------------------------------------------------------------|
C|----------------------------------------------------------------|
G|-0---10--0-12-0-13-0-12-0-13-0-12-10-/12-0-13-0-12-0-13-0-12-10-|
C|-0---10--0-12-0-13-0-12-0-13-0-12-10-/12-0-13-0-12-0-13-0-12-10-| x4
There isnt any tremolo picking done by guitar 2 on the second verse, so it plays the 
same as guitar 1 for the whole verse

PRE-CHORUS PART 1 (1.56)

Guitar 1

D|---------------------------------------------------------|
A|---------------------------------------------------------|
F|---------------------------------------------------------|
C|---------------------------------------------------------|
G|-0---0-0---000-0-0-0---000-0-0-0---000-0-0-0---000-0-0-0-|
C|-0---0-0---000-0-0-0---000-0-0-0---000-0-0-0---000-0-0-0-|
       . .   ...   . .   ...   . .   ...   . .   ...   . .

Guitar 2

D|---------------------------------------------------------|
A|---------------------------------------------------------|
F|---------------------------------------------------------|
C|---------------------------------------------------------|
G|-0---0-0---000-0-0-0---000-0-0-0---000-0-0-0---000-0-0-0-|
C|-0---0-0---000-0-0-0---000-0-0-0---000-0-0-0---000-0-0-0-|
       . .   ...   . .   ...   . .   ...   . .   ...   . .

Then it does this:

Guitar 1

D|-------------------------------------|
A|-------------------------------------|
F|-17-17-17---12-12-12---7-7-7---5-5-5-|
C|-------------------------------------|
G|-15-15-15---10-10-10---5-5-5---3-3-3-|
C|-------------------------------------|

Guitar 2

D|-------------------------------------|
A|-------------------------------------|
F|-------------------------------------|
C|-------------------------------------|
G|-000-0-0-0---000-0-0-0---000-0-0-0---|
C|-000-0-0-0---000-0-0-0---000-0-0-0---|
   ...   . .   ...   . .   ...   . .

PRE-CHORUS PART 2 (2.11)

Guitar 1

D|-------------------------------------------------|
A|-------------------------------------------------|
F|-17-17-17-17-17-17-17-17-15-15-15-15-14-14-14-14-|
C|-------------------------------------------------|
G|-15-15-15-15-15-15-15-15-13-13-13-13-12-12-12-12-|
C|-------------------------------------------------|

D|-------------------------------------------------|
A|-------------------------------------------------|
F|-17-17-17-17-17-17-17-17-10-10-10-10-9-9-9-9-----|
C|-------------------------------------------------|
G|-15-15-15-15-15-15-15-15--8--8--8--8-7-7-7-7-----|
C|-------------------------------------------------|

D|-------------------------------------------------|
A|-------------------------------------------------|
F|-17-17-17-17-17-17-17-17-15-15-15-15-14-14-14-14-|
C|-------------------------------------------------|
G|-15-15-15-15-15-15-15-15-13-13-13-13-12-12-12-12-|
C|-------------------------------------------------|

D|-------------------------------------------------|
A|-------------------------------------------------|
F|-17-17-17-17-17-17-17-17-19-19-19-19-19-19-19-19-|
C|-------------------------------------------------|
G|-15-15-15-15-15-15-15-15-17-17-17-17-17-17-17-17-|
C|-------------------------------------------------|

Guitar 2

D|------------------------------|
A|------------------------------|
F|------------------------------|
C|------------------------------|
G|-0000000011113333333311110000-|
C|-0000000011113333333311110000-|

Again, these are 1s, 3s and 0s, NOT 11s, 13s and 10s

CHORUS 2 (2.26)

Guitar 1

D|--------------------------------------------|
A|--------------------------------------------|
F|---7-9-10-14-15-10---7-8-12-9-9-9-9-9-9-9-9-|
C|-5-----------------3------------------------|
G|-5-5-7--8-12-13--8-3-5-6-10-7-7-7-7-7-7-7-7-|
C|-5-----------------3------------------------|

D|-------------------------------|
A|-------------------------------|
F|---7-9-10-14-15-10-19-19-17-15-|
C|-5-----------------------------|
G|-5-5-7--8-12-13--8-17-17-15-13-|
C|-5-----------------------------|

D|--------------------------------------------|
A|--------------------------------------------|
F|---7-9-10-14-15-10---7-8-12-9-9-9-9-9-9-9-9-|
C|-5-----------------3------------------------|
G|-5-5-7--8-12-13--8-3-5-6-10-7-7-7-7-7-7-7-7-|
C|-5-----------------3------------------------|

D|-------------------------------|
A|-------------------------------|
F|---7-9-10-14-15-10-19-19-17-15-|
C|-5-----------------------------|
G|-5-5-7--8-12-13--8-17-17-15-13-|
C|-5-----------------------------|

Guitar 2

D|------------------------------|
A|------------------------------|
F|------------------------------|
C|------------------------------|
G|-0000000011113333333311110000-|
C|-0000000011113333333311110000-| x4

INTERLUDEY BIT (3.00)

Guitar 1

D|------------------------------------------------------------|
A|------------------------------------------------------------|
F|-5-7---8-7-5-3-2---5/7-7/9-9/10-10/12-12/14-14/15------10-9-|
C|--------------------------------------------------15--------|
G|------------------------------------------------------------|
C|------------------------------------------------------------|

D|--------------------------------------------------------------------------|
A|--------------------------------------------------------------------------|
F|-5-5/7-7/9---8/7-7/5-5/3-3/2-5/7-7/9-9/10-10/12-12/14-14/15-15/17-17-19b--|
C|--------------------------------------------------------------------------|
G|--------------------------------------------------------------------------|
C|--------------------------------------------------------------------------|

Guitar 2 does the same thing here ^^ or something very similar at any rate

SOLO!!! (3.34)

D|---------------------------------------------------------------------|
A|---------------------------------------------------------------------|
F|-17b---17-18hp17---15-17hp15-16-12---10-12---10-12-10-12-10-14-15-12-|
C|---------------------------------------------------------------------|
G|---------------------------------------------------------------------|
C|---------------------------------------------------------------------|
                                              .
D|-----------------------------------------------------------------|
A|-----------------------------------------------------------------|
F|-17br-19br-17---12-10-12-10-8-10-8-6-8---------------10-------12-|
C|---------------------------------------12-10---10-12----10-12----|
G|-----------------------------------------------------------------|
C|-----------------------------------------------------------------|

D|------------------------|
A|------------------------|
F|-------10---------------|
C|-10-12-10-7-9-7-5-7-5---|
G|----------------------7-|
C|------------------------|
            . . . . . . .

D|-----------------------------------------------------------------------|
A|-------------------------------------------------------------------17b-|
F|---------------------------------------------------15---14-p12-h14-----|
C|-------------7-5-7-9-7-9-11-9-11-13-11-13-15-13-15---------------------|
G|-7-5-7-9-7-9-----------------------------------------------------------|
C|-----------------------------------------------------------------------|
   . . . . . . . . . . . . .  . .  .  .  .  .  .  .

For this bit ^^ it gets gradually less muted as you go along

D|---------------------------------------------------------|
A|-17-17-15-------17-14-14-14-12---------------------------|
F|----------19-17----------------14---12-14-12-14-15-17-19-|
C|---------------------------------------------------------|
G|---------------------------------------------------------|
C|---------------------------------------------------------|

D|-----------------------------------------------------------|
A|-----------------------------------------------------------|
F|-19-17-15p-17h-17-15p-13p-15h------------------------------|
C|------------------------------19-17-15p-17h-17-15p-13p-15h-|
G|-----------------------------------------------------------|
C|-----------------------------------------------------------|

This bar ^^ and the one below are just a series of pull-offs and hammer-ons

D|---------------------------------|
A|---------------------------------|
F|---------------------------------|
C|---------------------------------|
G|-19-17-15p-17h-17-15p-13p-15h-10-|
C|---------------------------------|

D|-----------------------------------------------------------------|
A|-----------------------------------------------------------------|
F|----------------------------------------------17-19-20-21b-20-21-|
C|----------------------------14-15-17-17-18-20--------------------|
G|-10-12-13-12-14-15-15-17-18--------------------------------------|
C|-----------------------------------------------------------------|
   .  .  .  .  .  .  .  .  .  .  .  .  .  .  .  .  .  .

This bar also gets less muted as it progresses


Not too sure about this bit, I think its tapping

D|--------------------------------------------------------------------------|
A|-20h17h15p19h17h15p20h17h15p19h17h15p20h17h15p19h17h15p20h17h15p19h17h15p-|
F|--------------------------------------------------------------------------|
C|--------------------------------------------------------------------------|
G|--------------------------------------------------------------------------|
C|--------------------------------------------------------------------------|

D|--------------------------------------------------------------------------|
A|-20h17h15p19h17h15p20h17h15p19h17h15p20h17h15p19h17h15p20h17h15p19h17h15p-|
F|--------------------------------------------------------------------------|
C|--------------------------------------------------------------------------|
G|--------------------------------------------------------------------------|
C|--------------------------------------------------------------------------|

D|--------------------|
A|-19brb-19brb-19-17~-|
F|--------------------|
C|--------------------|
G|--------------------|
C|--------------------|

Guitar 2

The rhythm for solo is just a combination of the same chords used in the chorus, shown below

D|------------------------------|
A|------------------------------|
F|------------------------------|
C|------------------------------|
G|-0000000011113333333311110000-|
C|-0000000011113333333311110000-|

Play it as many times as needed

CHORUS 3 (4.19)

Guitar 1

D|--------------------------------------------|
A|--------------------------------------------|
F|---7-9-10-14-15-10---7-8-12-9-9-9-9-9-9-9-9-|
C|-5-----------------3------------------------|
G|-5-5-7--8-12-13--8-3-5-6-10-7-7-7-7-7-7-7-7-|
C|-5-----------------3------------------------|

D|-------------------------------|
A|-------------------------------|
F|---7-9-10-14-15-10-19-19-17-15-|
C|-5-----------------------------|
G|-5-5-7--8-12-13--8-17-17-15-13-|
C|-5-----------------------------|

Guitar 2

D|------------------------------|
A|------------------------------|
F|------------------------------|
C|------------------------------|
G|-0000000011113333333311110000-|
C|-0000000011113333333311110000-| x2

Guitar 1

D|------------------------------------------|
A|------------------------------------------|
F|---5-7-8-12-13-8---5-6-10-7-7-7-7-7-7-7-7-|
C|-3---------------1------------------------|
G|-3-3-5-6-10-13-6-1-3-4--8-5-5-5-5-5-5-5-5-|
C|-3---------------1------------------------|

D|-----------------------------|
A|-----------------------------|
F|---5-7-8-12-13-8-17-17-15-13-|
C|-3---------------------------|
G|-3-3-5-6-10-11-6-15-15-13-11-|
C|-3---------------------------|

Guitar 2

D|------------------------------|
A|------------------------------|
F|------------------------------|
C|------------------------------|
G|-0000000011113333333311110000-|
C|-0000000011113333333311110000-| x2

Hope this tab is of some use :)

| /   slide up
| \   slide down
| h   hammer-on
| p   pull-off
| ~   vibrato
| +   harmonic
| .   Mute note
| b   Bend
| pb  Pre-bend
| br  Bend release
| pbr Pre-bend release
| brb Bend release bend
Добавлено: 23.06.2012
Другие материалы по этой песне:
  • Аккорды и текст

Страница создана 23.06.2012
http://primanota.ru/beneath-the-sky/it-all-ends-with-a-smile-chords.htm
Привет, Гость.
Предлагаем пройти революционный курс по гитаре.
Подарок от PrimaNota.Ru, забирай!