PrimaNota.ru - самый крупный в мире бесплатный архив песенных текстов, аккордов, табулатур и нот


Beneath The Sky - In Loving Memory - таба, видео

Регистрация Запомнить меня
Войти через:  Facebook Google Twitter Vk Yandex Mail.ru

Beneath The Sky - In Loving Memory - таба, видео

Печатать
Просмотров: 182
-------------------------------------------------------------------------------
In Loving Memory – Beneath the Sky
-------------------------------------------------------------------------------



Tuning: Drop C

Intro
D|-------------------------------|-------------------------------------------|
A|---15~-------------------------|-15~----15~----17~----17~----17~-----------|
F|---14~-------------------------|---14~----14~----14~----14~----14~-----x2--|
C|---12~-------------------------|-----12~----12~----12~----12~----12~-------|
G|-------------------------------|-------------------------------------------|
C|-------------------------------|-------------------------------------------|

D|---------------------------------------------------------------------------|
A|---15~----15~----14~----14~----14~----14~----14~----14~----14~----14~------|
F|-----14~----14~----14~----14~----14~----14~----14~----14~----14~----14~----|
C|-------12~----12~----12~----12~----12~----12~----12~----12~----12~----12~--|
G|---------------------------------------------------------------------------|
C|---------------------------------------------------------------------------|
   All of that again except the beginning C5 chord

   The first verse was the hardest thing to make out and I'm still not sure if this is 
right so comment if you think you know the correct way.
Verse
D|---------------------------------------------------------------------------|
A|---------------------------------------------------------------------------|
F|-7------7------7----6------6------6----7------7------7----6------6------6--|
C|-7------7------7----6------6------6----7------7------7----6------6------6--|
G|-5------5------5----4------4------4----5------5------5----4------4------4--|
C|---0000---0000---00---0000---0000---00---0000---0000---00---0000---0000--00|
     ****   ****   **   ****   ****   **   ****   ****   **   ****   ****  **
D|---------------------------------------------------------------------------|
A|---------------------------------------------------------------------------|
F|--7----------9----------11---------12--------------------------------------|
C|--x---x8-----x---x8-----x---x8-----x---x8----------------------------------|
G|--5----------7----------9----------10--------------------------------------|
C|---------------------------------------------------------------------------|

D|---------------------------------------------------------------------------|
A|---------------------------------------------------------------------------|
F|-7------7------7----6------6------6----7------7------7----6------6------6--|
C|-7------7------7----6------6------6----7------7------7----6------6------6--|
G|-5------5------5----4------4------4----5------5------5----4------4------4--|
C|---0000---0000---00---0000---0000---00---0000---0000---00---0000---0000--00|
     ****   ****   **   ****   ****   **   ****   ****   **   ****   ****  **
D|---------------------------------------------------------------------------|
A|---------------------------------------------------------------------------|
F|--12---------11---------9----------7---------------------------------------|
C|--x---x8-----x---x8-----x---x8-----x---x8----------------------------------|
G|--10---------9----------7----------5---------------------------------------|
C|---------------------------------------------------------------------------|

Bridge
D|---------------------------------------------------------------------------|
A|---------------------------------------------------------------------------|
F|---------11-11-11-11-9-9-9-9-7-7---------11-11-11-11-12-12-12-12-11-11-----|
C|--22222---------------------------55555------------------------------------|
G|--22222---------------------------55555------------------------------------|
C|--22222---------------------------55555------------------------------------|

D|---------------------------------------------------------------------------|
A|---------------------------------------------------------------------------|
F|---------11-11-11-11-9-9-9-9-7-7-------------------------------------------|
C|--22222---------------------------5--------------------9~------------------|
G|--22222---------------------------5---x16--------------9~------------------|
C|--22222---------------------------5--------------------9~------------------|

Chorus
D|---------------------------------------------------------------------------|
A|---------------------------------------------------------------------------|
F|---9---9---9---9---11--11--11--11--9---9---9---9---11--11--11--11----------|
C|-----7---7---7---7---7---7---7---7---7---7---7---7---7---7---7---7---------|
G|---------------------------------------------------------------------------|
C|---------------------------------------------------------------------------|

D|---------------------------------------------------------------------------|
A|---------------------------------------------------------------------------|
F|---11--11--11--11--14--14--14--14--11--11--11--11--14--14--14--14----------|
C|-----9---9---9---9---9---9---9---9---9---9---9---9---9---9---9---9---------|
G|---------------------------------------------------------------------------|
C|---------------------------------------------------------------------------|

D|---------------------------------------------------------------------------|
A|---------------------------------------------------------------------------|
F|---9---9---9---9---11--11--11--11--9---9---9---9---11--11--11--11----------|
C|-----7---7---7---7---7---7---7---7---7---7---7---7---7---7---7---7---------|
G|---------------------------------------------------------------------------|
C|---------------------------------------------------------------------------|

D|---------------------------------------------------------------------------|
A|---------------------------------------------------------------------------|
F|---12--12--12--12--11--11--11--11--14--14--14--14--11--11--11--11----------|
C|-----12--12--12--12--12--12--12--12--12--12--12--12--12--12--12--12--------|
G|---------------------------------------------------------------------------|
C|---------------------------------------------------------------------------|

D|---------------------------------------------------------------------------|
A|---------------------------------------------------------------------------|
F|---12--12--12--12--11--11--11--11----14-14-14-16-16-16-18-18-18/19-19-19-19|
C|-----12--12--12--12--12--12--12--12----------------------------------------|
G|---------------------------------------------------------------------------|
C|---------------------------------------------------------------------------|

Verse
D|---------------------------------------------------------------------------|
A|---------------------------------------------------------------------------|
F|----------11-11-11-11-9-9-9-9-7-7----------11-11-11-11-9-9-9-9-12-12-------|
C|--99999----------------------------99999-----------------------------------|
G|--99999----------------------------99999-----------------------------------|
C|--99999----------------------------99999-----------------------------------|
    *****			     *****
D|---------------------------------------------------------------------------|
A|---------------------------------------------------------------------------|
F|----------11-11-11-11-9-9-9-9-7-7----------11-11-11-11-9-9-9-9-12-12-------|
C|--55555----------------------------55555-----------------------------------|
G|--55555----------------------------55555-----------------------------------|
C|--55555----------------------------55555-----------------------------------|
    *****			     *****
All of that x2 with the last ending as:

D|---------------------------------------------------------------------------|
A|---------------------------------------------------------------------------|
F|-------------------------------------------11-11-11-11-14-14-14-14-16-16---|
C|---------------------------------------------------------------------------|
G|---------------------------------------------------------------------------|
C|---------------------------------------------------------------------------|

Chorus
D|---------------------------------------------------------------------------|
A|---------------------------------------------------------------------------|
F|---11--11--11--11--14--14--14--14--11--11--11--11--14--14--14--14----------|
C|-----9---9---9---9---9---9---9---9---9---9---9---9---9---9---9---9---------|
G|---------------------------------------------------------------------------|
C|---------------------------------------------------------------------------|

D|---------------------------------------------------------------------------|
A|---------------------------------------------------------------------------|
F|---9---9---9---9---11--11--11--11--9---9---9---9---11--11--11--11----------|
C|-----7---7---7---7---7---7---7---7---7---7---7---7---7---7---7---7---------|
G|---------------------------------------------------------------------------|
C|---------------------------------------------------------------------------|

D|---------------------------------------------------------------------------|
A|---------------------------------------------------------------------------|
F|---11--11--11--11--14--14--14--14--11--11--11--11--14--14--14--14----------|
C|-----9---9---9---9---9---9---9---9---9---9---9---9---9---9---9---9---------|
G|---------------------------------------------------------------------------|
C|---------------------------------------------------------------------------|

D|---------------------------------------------------------------------------|
A|---------------------------------------------------------------------------|
F|---9---9---9---9---11--11--11--11--9---9---9---9---11--11--11--11----------|
C|-----7---7---7---7---7---7---7---7---7---7---7---7---7---7---7---7---------|
G|---------------------------------------------------------------------------|
C|---------------------------------------------------------------------------|

D|---------------------------------------------------------------------------|
A|---------------------------------------------------------------------------|
F|---12--12--12--12--11--11--11--11--14--14--14--14--11--11--11--11----------|
C|-----12--12--12--12--12--12--12--12--12--12--12--12--12--12--12--12--------|
G|---------------------------------------------------------------------------|
C|---------------------------------------------------------------------------|

D|---------------------------------------------------------------------------|
A|---------------------------------------------------------------------------|
F|---12--12--12--12--11--11--11--11----14-14-14/16-16-16/18-18-18/19-19-19-19|
C|-----12--12--12--12--12--12--12--12----------------------------------------|
G|---------------------------------------------------------------------------|
C|---------------------------------------------------------------------------|

Interlude thing
D|---------------------------------------------------------------------------|
A|---------------------------------------------------------------------------|
F|---------------------------------------------------------------------------|
C|---9~-------------------------------------5~-------------------------------|
G|---9~-------------------------------------5~-------------------------------|
C|---9~-------------------------------------5~-------------------------------|

D|---------------------------------------------------------------------------|
A|---15~----15~----17~----17~----17~----15~----15~----17~----17~----17~------|
F|-----14~----14~----14~----14~----14~----14~----14~----14~----14~----14~----|
C|-------12~----12~----12~----12~----12~----12~----12~----12~----12~----12~--|
G|---------------------------------------------------------------------------|
C|---------------------------------------------------------------------------|
		                                                         x2
D|---------------------------------------------------------------------------|
A|---15~----15~----14~----14~----14~----14~----14~----14~----14~----14~------|
F|-----14~----14~----14~----14~----14~----14~----14~----14~----14~----14~----|
C|-------12~----12~----12~----12~----12~----12~----12~----12~----12~----12~--|
G|---------------------------------------------------------------------------|
C|---------------------------------------------------------------------------|

Solo
D|---------------------------------------------------------------------------|
A|--15b17~~r15~--15/17/19--17b19~~r17~--15-17-15-----------------------------|
F|---------------------------------------------------------------------------|
C|---------------------------------------------------------------------------|
G|---------------------------------------------------------------------------|
C|---------------------------------------------------------------------------|

Pre-chorus
D|---------------------------------------------------------------------------|
A|-----------------10----------------------------------10--------------------|
F|---------11-9-------11-9-11-9h11p9-7---------11-9-------11-9-11-9h119--9---|
C|--99999-------12----------------------99999-------12-----------------------|
G|--99999-------------------------------99999--------------------------------|
C|--99999-------------------------------99999--------------------------------|
    ***** 			        *****				   x2
D|---------------------------------------------------------------------------|
A|-----------------10--------------------------------------------------------|
F|---------11-9-------11-9-11-9h11p9-7---------11-9----11-9----11-9----11----|
C|--55555-------12----------------------55555-------12------12------12-------|
G|--55555-------------------------------55555--------------------------------|
C|--55555-------------------------------55555--------------------------------|
    *****			        *****
Chorus
D|---------------------------------------------------------------------------|
A|---------------------------------------------------------------------------|
F|---11--11--11--11--14--14--14--14--11--11--11--11--14--14--14--14----------|
C|-----9---9---9---9---9---9---9---9---9---9---9---9---9---9---9---9---------|
G|---------------------------------------------------------------------------|
C|---------------------------------------------------------------------------|

D|---------------------------------------------------------------------------|
A|---------------------------------------------------------------------------|
F|---9---9---9---9---11--11--11--11--9---9---9---9---11--11--11--11----------|
C|-----7---7---7---7---7---7---7---7---7---7---7---7---7---7---7---7---------|
G|---------------------------------------------------------------------------|
C|---------------------------------------------------------------------------|

D|---------------------------------------------------------------------------|
A|---------------------------------------------------------------------------|
F|---11--11--11--11--14--14--14--14--11--11--11--11--14--14--14--14----------|
C|-----9---9---9---9---9---9---9---9---9---9---9---9---9---9---9---9---------|
G|---------------------------------------------------------------------------|
C|---------------------------------------------------------------------------|

D|---------------------------------------------------------------------------|
A|---------------------------------------------------------------------------|
F|---9---9---9---9---11--11--11--11--9---9---9---9---11--11--11--11----------|
C|-----7---7---7---7---7---7---7---7---7---7---7---7---7---7---7---7---------|
G|---------------------------------------------------------------------------|
C|---------------------------------------------------------------------------|

D|---------------------------------------------------------------------------|
A|---------------------------------------------------------------------------|
F|---12--12--12--12--11--11--11--11--14--14--14--14--11--11--11--11----------|
C|-----12--12--12--12--12--12--12--12--12--12--12--12--12--12--12--12--------|
G|---------------------------------------------------------------------------|
C|---------------------------------------------------------------------------|

D|---------------------------------------------------------------------------|
A|---------------------------------------------------------------------------|
F|---12--12--12--12--11--11--11--11----14-14-14/16-16-16/18-18-18/19-19-19-19|
C|-----12--12--12--12--12--12--12--12----------------------------------------|
G|---------------------------------------------------------------------------|
C|---------------------------------------------------------------------------|

Well that's it! There may be some mistakes here and there so if there is just let me 
know. Enjoy!
************************************

| /   slide up
| \   slide down
| h   hammer-on
| p   pull-off
| ~   vibrato
| +   harmonic
| x   Mute note
| b   Bend
| pb  Pre-bend
| br  Bend release
| pbr Pre-bend release
| brb Bend release bend

************************************
Добавлено: 23.02.2012
Другие материалы по этой песне:
  • Аккорды и текст

Страница создана 23.02.2012
http://primanota.ru/beneath-the-sky/in-loving-memory-chords.htm
Привет, Гость.
Предлагаем пройти революционный курс по гитаре.
Подарок от PrimaNota.Ru, забирай!