PrimaNota.ru - самый крупный в мире бесплатный архив песенных текстов, аккордов, табулатур и нот


Beneath The Sky - Ill Call This My Own - текст песни, таба, видео

Регистрация Запомнить меня
Войти через:  Facebook Google Twitter Vk Yandex Mail.ru

Beneath The Sky - Ill Call This My Own - текст песни, таба, видео

Печатать
Просмотров: 119
Hey :D This is the tab for I'll call this my own, my favourite song by beneath the sky

It's also the first tab i've learnt by ear, and I think it's pretty accurate

Email me if you've got any issues

:) enjoy!

INTRO

Guitar 1

D|-------------------------------------------------------------------------|
A|-------------------------------------------------------------------------|
F|-------------------------------------------------------------------------|
C|-0-/7-5-8-7---/2-3-5-3---0-/7-5-8-7---/7-8-10-8---0-/7-5-3-2---/7-5-8-7--|
G|-0-----------------------0------------------------0----------------------|
C|-0-----------------------0------------------------0----------------------|

D|-------------------------------------------------------------------------|
A|-------------------------------------------------------------------------|
F|----------------------------------------------------------0--------------|
C|-0-/7-5-8-7---/7-8-10-8---0-/7-5-3-5---/7-5-8-7---0---0------------------|
G|-0------------------------0-----------------------0----------------------|
C|-0------------------------0-----------------------0----------------------|

Guitar 2

D|-------------------------------------------------------------------------|
A|-------------------------------------------------------------------------|
F|------------3------------------------3-----------------------3-----------|
C|-0----------3------------5-/9-7-10-9-3-/7-8-10-8--8-/9-7-5-4-3-/7-5-8-7--|
G|-0----------1------------5-----------1------------8----------1-----------|
C|-0-----------------------5------------------------8----------------------|

D|-------------------------------------------------------------------------|
A|-------------------------------------------------------------------------|
F|------------3------------------------3-----------------------------------|
C|-0-/7-5-8-7-3-/8-9-11-9---5-/7-5-3-5-3-/7-5-8-7---0----------------------|
G|-0----------1-------------5----------1------------0----------------------|
C|-0------------------------5-----------------------0----------------------|


VERSE

Guitar 1

D|-------------------------------------------------------------------------|
A|-------------------------------------------------------------------------|
F|-------------------------------------------------------------------------|
C|-------------------------------------------------------------------------|
G|-0-0-7-0-8-10-0-3-0-5-7-5-3-------0-7-0-8-10-0-3-0-5-0-5-7---------------|
C|-0-0-7-0-8-10-0-3-0-5-7-----5-3---0-7-0-8-10-0-3-0-5-0-5-7---------------|
Pm   .   .      .   . . .           .   .      .   . . .

D|-------------------------------------------------------------------------|
A|-------------------------------------------------------------------------|
F|-------------------------------------------------------------------------|
C|-------------------------------------------------------------------------|
G|-0-0-7-0-8-10-0-3-0-5-7-5-3-------0-7-0-8-10-0-3-0-5-0-5-7---------------|
C|-0-0-7-0-8-10-0-3-0-5-7-----5-3---0-7-0-8-10-0-3-0-5-0-5-7---------------|
Pm   .   .      .   . . .           .   .      .   . . .

D|-------------------------------------------------------------------------|
A|-------------------------------------------------------------------------|
F|-------------------------------------------------------------------------|
C|---------------------------------------------------5-5---3-3-------------|
G|-0-0-7-0-8-10-0-3-0-5-7-5-3-------0-7-0-8-10-0-3---5-5---3-3-------------|
C|-0-0-7-0-8-10-0-3-0-5-7-----5-3---0-7-0-8-10-0-3---5-5---3-3-------------|
Pm   .   .      .   . . .           .   .      .

D|-------------------------------------------------------------------------|
A|-------------------------------------------------------------------------|
F|-------------------------------------------------------------------------|
C|-------------------------------------------------------------------------|
G|-0-0-7-0-8-10-0-3-0-5-7-5-3-------0-7-0-8-10-0-3-0-5-0-5-7---------------|
C|-0-0-7-0-8-10-0-3-0-5-7-----5-3---0-7-0-8-10-0-3-0-5-0-5-7---------------|
Pm   .   .      .   . . .           .   .      .   . . .

D|-------------------------------------------------------------------------|
A|-------------------------------------------------------------------------|
F|-------------------------------------------------------------------------|
C|---------------------------------------------------5-5---3-3-------------|
G|-0-0-7-0-8-10-0-3-0-5-7-5-3-------0-7-0-8-10-0-3---5-5---3-3-------------|
C|-0-0-7-0-8-10-0-3-0-5-7-----5-3---0-7-0-8-10-0-3---5-5---3-3-------------|

Guitar 2

D|-------------------------------------------------------------------------|
A|-------------------------------------------------------------------------|
F|-------------------------------------------------------------------------|
C|-------------------------------------------------------------------------|
G|----------------------------------0-7-0-8-10-0-3-0-5-0-5-7---------------|
C|----------------------------------0-7-0-8-10-0-3-0-5-0-5-7---------------|
Pm                                  .   .      .   . . .

D|-------------------------------------------------------------------------|
A|-------------------------------------------------------------------------|
F|-------------------------------------------------------------------------|
C|-------------------------------------------------------------------------|
G|-0-0-7-0-8-10-0-3-0-5-7-5-3-------0-7-0-8-10-0-3-0-5-0-5-7---------------|
C|-0-0-7-0-8-10-0-3-0-5-7-----5-3---0-7-0-8-10-0-3-0-5-0-5-7---------------|
Pm   .   .      .   . . .           .   .      .   . . .

D|-------------------------------------------------------------------------|
A|-------------------------------------------------------------------------|
F|-------------------------------------------------------------------------|
C|---------------------------------------------------5-5---3-3-------------|
G|-0-0-7-0-8-10-0-3-0-5-7-5-3-------0-7-0-8-10-0-3---5-5---3-3-------------|
C|-0-0-7-0-8-10-0-3-0-5-7-----5-3---0-7-0-8-10-0-3---5-5---3-3-------------|
Pm   .   .      .   . . .           .   .      .

D|--------------------------------------------------------------------------|
A|--------------------------------------------------------------------------|
F|--------------------------------------------------------------------------|
C|--------------------------------------------------------------------------|
G|-0000000-000000000-1-000000-000000000-1-000000-000000000------------------|
C|-0000000-000000000-1-000000-000000000-1-000000-000000000------------------|

D|--------------------------------------------------------------------------|
A|--------------------------------------------------------------------------|
F|--------------------------------------------------------------------------|
C|--------------------------------------------------------------------------|
G|-1-000000-000000000-------------------------------------------------------|
C|-1-000000-000000000-------------------------------------------------------|

BRIDGE

Guitar 1

D|--------------------------------------------------------------------------|
A|--------------------------------------------------------------------------|
F|-7-7---7-10-10---10-9-9---9-7-7-7-7-7-7---7-10-10---10-9-9---9-7-7-7-7----|
C|--------------------------------------------------------------------------|
G|-5-5---5--8--8----8-7-7---7-5-5-5-5-5-5---5--8--8----8-7-7---7-5-5-5-5----|
C|--------------------------------------------------------------------------|

D|--------------------------------------------------------------------------|
A|--------------------------------------------------------------------------|
F|-10-10---10-14-14---14-17-17---17-10-10-10-10-----------------------------|
C|--------------------------------------------------------------------------|
G|--8--8----8-12-12---12-15-15---15--8--8--8--8-----------------------------|
C|--------------------------------------------------------------------------|

D|--------------------------------------------------------------------------|
A|--------------------------------------------------------------------------|
F|-10-10---10-14-14---14-17-17---17-10-10-10-10-----------------------------|
C|--------------------------------------------------------------------------|
G|--8--8----8-12-12---12-15-15---15--8--8--8--8-----------------------------|
C|--------------------------------------------------------------------------|

D|--------------------------------------------------------------------------|
A|--------------------------------------------------------------------------|
F|-7-7---7-10-10---10-9-9---9-7-7-7-7-7-7---7-10-10---10-9-9---9-7-7-7-7----|
C|--------------------------------------------------------------------------|
G|-5-5---5--8--8----8-7-7---7-5-5-5-5-5-5---5--8--8----8-7-7---7-5-5-5-5----|
C|--------------------------------------------------------------------------|

D|--------------------------------------------------------------------------|
A|--------------------------------------------------------------------------|
F|-10-10---10-14-14---14-17-17---17-10-10-10-10-----------------------------|
C|--------------------------------------------------------------------------|
G|--8--8----8-12-12---12-15-15---15--8--8--8--8-----------------------------|
C|--------------------------------------------------------------------------|

D|--------------------------------------------------------------------------|
A|--------------------------------------------------------------------------|
F|-15-15-15-15-15-15-15-15-17-17-17-17-17-17-17-17--------------------------|
C|--------------------------------------------------------------------------|
G|-13-13-13-13-13-13-13-13-15-15-15-15-15-15-15-15--------------------------|
C|--------------------------------------------------------------------------|

Guitar 2

D|--------------------------------------------------------------------------|
A|--------------------------------------------------------------------------|
F|-11-11-11-11-11-11-11-11-11-11-11-11-11-11-11-11-11-11-11-11-11-11-11-----|
C|--------------------------------------------------------------------------|
G|--9--9--9--9--9--9--9--9--9--9--9--9--9--9--9--9--9--9--9--9--9--9--9-----|
C|--------------------------------------------------------------------------|

D|--------------------------------------------------------------------------|
A|--------------------------------------------------------------------------|
F|-14-14-14-14-14-14-14-14-14-14-14-14-14-14-14-14-14-14-14-14-14-14-14-----|
C|--------------------------------------------------------------------------|
G|-12-12-12-12-12-12-12-12-12-12-12-12-12-12-12-12-12-12-12-12-12-12-12-----|
C|--------------------------------------------------------------------------|

D|--------------------------------------------------------------------------|
A|--------------------------------------------------------------------------|
F|-16-16-16-16-16-16-16-16-16-16-16-16-16-16-16-16-16-16-16-16-16-16-16-16--|
C|--------------------------------------------------------------------------|
G|-14-14-14-14-14-14-14-14-14-14-14-14-14-14-14-14-14-14-14-14-14-14-14-14--|
C|--------------------------------------------------------------------------|

D|--------------------------------------------------------------------------|
A|--------------------------------------------------------------------------|
F|-11-11-11-11-11-11-11-11-11-11-11-11-11-11-11-11-11-11-11-11-11-11-11-----|
C|--------------------------------------------------------------------------|
G|--9--9--9--9--9--9--9--9--9--9--9--9--9--9--9--9--9--9--9--9--9--9--9-----|
C|--------------------------------------------------------------------------|

D|--------------------------------------------------------------------------|
A|--------------------------------------------------------------------------|
F|-14-14-14-14-14-14-14-14-14-14-14-14-14-14-14-14-14-14-14-14-14-14-14-----|
C|--------------------------------------------------------------------------|
G|-12-12-12-12-12-12-12-12-12-12-12-12-12-12-12-12-12-12-12-12-12-12-12-----|
C|--------------------------------------------------------------------------|

D|--------------------------------------------------------------------------|
A|--------------------------------------------------------------------------|
F|-15-15-15-15-15-15-15-15-17-17-17-17-17-17-17-17--------------------------|
C|--------------------------------------------------------------------------|
G|-13-13-13-13-13-13-13-13-15-15-15-15-15-15-15-15--------------------------|
C|--------------------------------------------------------------------------|

CHORUS

Guitar 1

D|--------------------------------------------------------------------------|
A|--------------------------------------------------------------------------|
F|-17-15-14------------14-15----14-15-17---14-15----14-15-19-17-15-14-15----|
C|----------17-15-14---------17------------------17-------------------------|
G|--------------------------------------------------------------------------|
C|--------------------------------------------------------------------------|

D|--------------------------------------------------------------------------|
A|--------------------------------------------------------------------------|
F|-14-15----14-15---17---15---14---15-14---12-------------------------------|
C|-------17-----------------------------------------------------------------|
G|--------------------------------------------------------------------------|
C|--------------------------------------------------------------------------|

D|--------------------------------------------------------------------------|
A|--------------------------------------------------------------------------|
F|-17-15-14------------14-15----14-15-17---14-15----14-15-19-17-15-14-15----|
C|----------17-15-14---------17------------------17-------------------------|
G|--------------------------------------------------------------------------|
C|--------------------------------------------------------------------------|

D|--------------------------------------------------------------------------|
A|--------------------------------------------------------------------------|
F|-17-15-14------------14-15----14-15-17-17171717171717171919191919191919---|
C|----------17-15-14---------17---------------------------------------------|
G|--------------------------------------------------------------------------|
C|--------------------------------------------------------------------------|

Guitar 2

D|------------------------------------------------------------------------|
A|------------------------------------------------------------------------|
F|------------------------------------------------------------------------|
C|-1-1-1-1-1-1-1-1-3-3-3-3-3-3-3-3-5-5-5-5-3-3-3-3-5-5-5-5----------------|
F|-1-1-1-1-1-1-1-1-3-3-3-3-3-3-3-3-5-5-5-5-3-3-3-3-5-5-5-5----------------|
C|-1-1-1-1-1-1-1-1-3-3-3-3-3-3-3-3-5-5-5-5-3-3-3-3-5-5-5-5----------------|

D|------------------------------------------------------------------------|
A|------------------------------------------------------------------------|
F|------------------------------------------------------------------------|
C|-1-1-1-1-1-1-1-1-3-3-3-3-3-3-3-3-0-0-0-0-0-0-0-0-0-0-0-0----------------|
F|-1-1-1-1-1-1-1-1-3-3-3-3-3-3-3-3-0-0-0-0-0-0-0-0-0-0-0-0----------------|
C|-1-1-1-1-1-1-1-1-3-3-3-3-3-3-3-3-0-0-0-0-0-0-0-0-0-0-0-0----------------|
Pm                                 . . . . . . . . . . . .

D|------------------------------------------------------------------------|
A|------------------------------------------------------------------------|
F|------------------------------------------------------------------------|
C|-1-1-1-1-1-1-1-1-3-3-3-3-3-3-3-3-5-5-5-5-5-7-5-3-5-3--------------------|
F|-1-1-1-1-1-1-1-1-3-3-3-3-3-3-3-3-5-5-5-5-5-7-5-3-5-3--------------------|
C|-1-1-1-1-1-1-1-1-3-3-3-3-3-3-3-3-5-5-5-5-5-7-5-3-5-3--------------------|

D|------------------------------------------------------------------------|
A|------------------------------------------------------------------------|
F|------------------------------------------------------------------------|
C|-1-1-1-1-1-1-1-1-3-3-3-3-3-3-3-3-0-0-0-0-0-0-0-0-0-0-0-0----------------|
F|-1-1-1-1-1-1-1-1-3-3-3-3-3-3-3-3-0-0-0-0-0-0-0-0-0-0-0-0----------------|
C|-1-1-1-1-1-1-1-1-3-3-3-3-3-3-3-3-0-0-0-0-0-0-0-0-0-0-0-0----------------|
Pm                                 . . . . . . . . . . . .

VERSE

Guitar 1

D|-------------------------------------------------------------------------|
A|-------------------------------------------------------------------------|
F|-------------------------------------------------------------------------|
C|-------------------------------------------------------------------------|
G|-0-0-7-0-8-10-0-3-0-5-7-5-3-------0-7-0-8-10-0-3-0-5-0-5-7---------------|
C|-0-0-7-0-8-10-0-3-0-5-7-----5-3---0-7-0-8-10-0-3-0-5-0-5-7---------------|
Pm   .   .      .   . . .           .   .      .   . . .

D|-------------------------------------------------------------------------|
A|-------------------------------------------------------------------------|
F|-------------------------------------------------------------------------|
C|---------------------------------------------------5-5---3-3-------------|
G|-0-0-7-0-8-10-0-3-0-5-7-5-3-------0-7-0-8-10-0-3---5-5---3-3-------------|
C|-0-0-7-0-8-10-0-3-0-5-7-----5-3---0-7-0-8-10-0-3---5-5---3-3-------------|

D|--------------------------------------------------------------------------|
A|--------------------------------------------------------------------------|
F|--------------------------------------------------------------------------|
C|--------------------------------------------------------------------------|
G|-0000000-000000000-1-000000-000000000-1-000000-000000000------------------|
C|-0000000-000000000-1-000000-000000000-1-000000-000000000------------------|

D|--------------------------------------------------------------------------|
A|--------------------------------------------------------------------------|
F|--------------------------------------------------------------------------|
C|--------------------------------------------------------------------------|
G|-1-000000-000000000-------------------------------------------------------|
C|-1-000000-000000000-------------------------------------------------------|

Guitar 2

D|-------------------------------------------------------------------------|
A|-------------------------------------------------------------------------|
F|-------------------------------------------------------------------------|
C|-------------------------------------------------------------------------|
G|-0-0-7-0-8-10-0-3-0-5-7-5-3-------0-7-0-8-10-0-3-0-5-0-5-7---------------|
C|-0-0-7-0-8-10-0-3-0-5-7-----5-3---0-7-0-8-10-0-3-0-5-0-5-7---------------|
Pm   .   .      .   . . .           .   .      .   . . .

D|-------------------------------------------------------------------------|
A|-------------------------------------------------------------------------|
F|-------------------------------------------------------------------------|
C|---------------------------------------------------5-5---3-3-------------|
G|-0-0-7-0-8-10-0-3-0-5-7-5-3-------0-7-0-8-10-0-3---5-5---3-3-------------|
C|-0-0-7-0-8-10-0-3-0-5-7-----5-3---0-7-0-8-10-0-3---5-5---3-3-------------|
Pm   .   .      .   . . .           .   .      .

D|--------------------------------------------------------------------------|
A|--------------------------------------------------------------------------|
F|--------------------------------------------------------------------------|
C|--------------------------------------------------------------------------|
G|-0000000-000000000-1-000000-000000000-1-000000-000000000------------------|
C|-0000000-000000000-1-000000-000000000-1-000000-000000000------------------|

D|--------------------------------------------------------------------------|
A|--------------------------------------------------------------------------|
F|--------------------------------------------------------------------------|
C|--------------------------------------------------------------------------|
G|-1-000000-000000000-------------------------------------------------------|
C|-1-000000-000000000-------------------------------------------------------|


BRIDGE

D|--------------------------------------------------------------------------|
A|--------------------------------------------------------------------------|
F|-7-7---7-10-10---10-9-9---9-7-7-7-7-7-7---7-10-10---10-9-9---9-7-7-7-7----|
C|--------------------------------------------------------------------------|
G|-5-5---5--8--8----8-7-7---7-5-5-5-5-5-5---5--8--8----8-7-7---7-5-5-5-5----|
C|--------------------------------------------------------------------------|

D|--------------------------------------------------------------------------|
A|--------------------------------------------------------------------------|
F|-10-10---10-14-14---14-17-17---17-10-10-10-10-----------------------------|
C|--------------------------------------------------------------------------|
G|--8--8----8-12-12---12-15-15---15--8--8--8--8-----------------------------|
C|--------------------------------------------------------------------------|

D|--------------------------------------------------------------------------|
A|--------------------------------------------------------------------------|
F|-10-10---10-14-14---14-17-17---17-10-10-10-10-----------------------------|
C|--------------------------------------------------------------------------|
G|--8--8----8-12-12---12-15-15---15--8--8--8--8-----------------------------|
C|--------------------------------------------------------------------------|

D|--------------------------------------------------------------------------|
A|--------------------------------------------------------------------------|
F|-7-7---7-10-10---10-9-9---9-7-7-7-7-7-7---7-10-10---10-9-9---9-7-7-7-7----|
C|--------------------------------------------------------------------------|
G|-5-5---5--8--8----8-7-7---7-5-5-5-5-5-5---5--8--8----8-7-7---7-5-5-5-5----|
C|--------------------------------------------------------------------------|

D|--------------------------------------------------------------------------|
A|--------------------------------------------------------------------------|
F|-10-10---10-14-14---14-17-17---17-10-10-10-10-----------------------------|
C|--------------------------------------------------------------------------|
G|--8--8----8-12-12---12-15-15---15--8--8--8--8-----------------------------|
C|--------------------------------------------------------------------------|

D|--------------------------------------------------------------------------|
A|--------------------------------------------------------------------------|
F|-15-15-15-15-15-15-15-15-17-17-17-17-17-17-17-17--------------------------|
C|--------------------------------------------------------------------------|
G|-13-13-13-13-13-13-13-13-15-15-15-15-15-15-15-15--------------------------|
C|--------------------------------------------------------------------------|

Guitar 2

D|--------------------------------------------------------------------------|
A|--------------------------------------------------------------------------|
F|-11-11-11-11-11-11-11-11-11-11-11-11-11-11-11-11-11-11-11-11-11-11-11-----|
C|--------------------------------------------------------------------------|
G|--9--9--9--9--9--9--9--9--9--9--9--9--9--9--9--9--9--9--9--9--9--9--9-----|
C|--------------------------------------------------------------------------|

D|--------------------------------------------------------------------------|
A|--------------------------------------------------------------------------|
F|-14-14-14-14-14-14-14-14-14-14-14-14-14-14-14-14-14-14-14-14-14-14-14-----|
C|--------------------------------------------------------------------------|
G|-12-12-12-12-12-12-12-12-12-12-12-12-12-12-12-12-12-12-12-12-12-12-12-----|
C|--------------------------------------------------------------------------|

D|--------------------------------------------------------------------------|
A|--------------------------------------------------------------------------|
F|-16-16-16-16-16-16-16-16-16-16-16-16-16-16-16-16-16-16-16-16-16-16-16-16--|
C|--------------------------------------------------------------------------|
G|-14-14-14-14-14-14-14-14-14-14-14-14-14-14-14-14-14-14-14-14-14-14-14-14--|
C|--------------------------------------------------------------------------|

D|--------------------------------------------------------------------------|
A|--------------------------------------------------------------------------|
F|-11-11-11-11-11-11-11-11-11-11-11-11-11-11-11-11-11-11-11-11-11-11-11-----|
C|--------------------------------------------------------------------------|
G|--9--9--9--9--9--9--9--9--9--9--9--9--9--9--9--9--9--9--9--9--9--9--9-----|
C|--------------------------------------------------------------------------|

D|--------------------------------------------------------------------------|
A|--------------------------------------------------------------------------|
F|-14-14-14-14-14-14-14-14-14-14-14-14-14-14-14-14-14-14-14-14-14-14-14-----|
C|--------------------------------------------------------------------------|
G|-12-12-12-12-12-12-12-12-12-12-12-12-12-12-12-12-12-12-12-12-12-12-12-----|
C|--------------------------------------------------------------------------|

D|--------------------------------------------------------------------------|
A|--------------------------------------------------------------------------|
F|-15-15-15-15-15-15-15-15-17-17-17-17-17-17-17-17--------------------------|
C|--------------------------------------------------------------------------|
G|-13-13-13-13-13-13-13-13-15-15-15-15-15-15-15-15--------------------------|
C|--------------------------------------------------------------------------|

CHORUS

Guitar 1

D|--------------------------------------------------------------------------|
A|--------------------------------------------------------------------------|
F|-17-15-14------------14-15----14-15-17---14-15----14-15-19-17-15-14-15----|
C|----------17-15-14---------17------------------17-------------------------|
G|--------------------------------------------------------------------------|
C|--------------------------------------------------------------------------|

D|--------------------------------------------------------------------------|
A|--------------------------------------------------------------------------|
F|-14-15----14-15---17---15---14---15-14---12-------------------------------|
C|-------17-----------------------------------------------------------------|
G|--------------------------------------------------------------------------|
C|--------------------------------------------------------------------------|

D|--------------------------------------------------------------------------|
A|--------------------------------------------------------------------------|
F|-17-15-14------------14-15----14-15-17---14-15----14-15-19-17-15-14-15----|
C|----------17-15-14---------17------------------17-------------------------|
G|--------------------------------------------------------------------------|
C|--------------------------------------------------------------------------|

D|--------------------------------------------------------------------------|
A|--------------------------------------------------------------------------|
F|-17-15-14------------14-15----14-15-17-17171717171717171919191919191919---|
C|----------17-15-14---------17---------------------------------------------|
G|--------------------------------------------------------------------------|
C|--------------------------------------------------------------------------|

Guitar 2

D|------------------------------------------------------------------------|
A|------------------------------------------------------------------------|
F|------------------------------------------------------------------------|
C|-1-1-1-1-1-1-1-1-3-3-3-3-3-3-3-3-5-5-5-5-3-3-3-3-5-5-5-5----------------|
F|-1-1-1-1-1-1-1-1-3-3-3-3-3-3-3-3-5-5-5-5-3-3-3-3-5-5-5-5----------------|
C|-1-1-1-1-1-1-1-1-3-3-3-3-3-3-3-3-5-5-5-5-3-3-3-3-5-5-5-5----------------|

D|------------------------------------------------------------------------|
A|------------------------------------------------------------------------|
F|------------------------------------------------------------------------|
C|-1-1-1-1-1-1-1-1-3-3-3-3-3-3-3-3-0-0-0-0-0-0-0-0-0-0-0-0----------------|
F|-1-1-1-1-1-1-1-1-3-3-3-3-3-3-3-3-0-0-0-0-0-0-0-0-0-0-0-0----------------|
C|-1-1-1-1-1-1-1-1-3-3-3-3-3-3-3-3-0-0-0-0-0-0-0-0-0-0-0-0----------------|
Pm                                 . . . . . . . . . . . .

D|------------------------------------------------------------------------|
A|------------------------------------------------------------------------|
F|------------------------------------------------------------------------|
C|-1-1-1-1-1-1-1-1-3-3-3-3-3-3-3-3-5-5-5-5-5-7-5-3-5-3--------------------|
F|-1-1-1-1-1-1-1-1-3-3-3-3-3-3-3-3-5-5-5-5-5-7-5-3-5-3--------------------|
C|-1-1-1-1-1-1-1-1-3-3-3-3-3-3-3-3-5-5-5-5-5-7-5-3-5-3--------------------|

D|------------------------------------------------------------------------|
A|------------------------------------------------------------------------|
F|------------------------------------------------------------------------|
C|-1-1-1-1-1-1-1-1-3-3-3-3-3-3-3-3-0-0-0-0-0-0-0-0-0-0-0-0----------------|
F|-1-1-1-1-1-1-1-1-3-3-3-3-3-3-3-3-0-0-0-0-0-0-0-0-0-0-0-0----------------|
C|-1-1-1-1-1-1-1-1-3-3-3-3-3-3-3-3-0-0-0-0-0-0-0-0-0-0-0-0----------------|
Pm                                 . . . . . . . . . . . .

BRIDGEY VERSEY THINGYWOTSIT PART 1

Guitar 1

D|--------------------------------------------------------------------------|
A|--------------------------------------------------------------------------|
F|-----------------------------------------7-8-10-12-7-8-10-12---15b15b15b--|
C|--------------------------------------------------------------------------|
G|-00000-000000000000-00000-000000000000------------------------------------|
C|-00000-000000000000-00000-000000000000------------------------------------|
Pm ..... ............ ..... ............

D|--------------------------------------------------------------------------|
A|--------------------------------------------------------------------------|
F|--------------------------------------------------------------------------|
C|--------------------------------------------------------------------------|
G|-00000-000000000000-00000-00000000000000000-000000000000-00000-00000000000|
C|-00000-000000000000-00000-00000000000000000-000000000000-00000-00000000000|
Pm ..... ............ ..... ................. ............ ..... ............

Guitar 2

D|--------------------------------------------------------------------------|
A|--------------------------------------------------------------------------|
F|--------------------------------------------------------------------------|
C|--------------------------------------------------------------------------|
G|-00000-000000000000-00000-00000000000000000-000000000000-00000-00000000000|
C|-00000-000000000000-00000-00000000000000000-000000000000-00000-00000000000|
Pm ..... ............ ..... ................. ............ ..... ............

D|--------------------------------------------------------------------------|
A|--------------------------------------------------------------------------|
F|--------------------------------------------------------------------------|
C|--------------------------------------------------------------------------|
G|-00000-000000000000-00000-00000000000000000-000000000000-00000-00000000000|
C|-00000-000000000000-00000-00000000000000000-000000000000-00000-00000000000|
Pm ..... ............ ..... ................. ............ ..... ............

BRIDGEY VERSEY THINGYWOTSIT PART 2

Guitar 1

D|--------------------------------------------------------------------------|
A|--------------------------------------------------------------------------|
F|-7---55---5-33---3-55-5-5---5-77-7-7---7-99999999-------------------------|
C|-7---55---5-33---3-55-5-5---5-77-5-5---7-99999999-------------------------|
G|-5---33---3-11---1-33-3-3---3-55-5-5---5-77777777-------------------------|
C|--------------------------------------------------------------------------|

D|-------------------------5-8-10-12-14-------------------------------------|
A|-12-10-8-7---12-10-8-7---------------------------15-----------------------|
F|-------------------------------------------14p15----15p14------15---14----|
C|----------------------------------------12-----------------12----------0--|
G|-----------------------------------------------------------------------0--|
C|-----------------------------------------------------------------------0--|

Guitar 2

D|--------------------------------------------------------------------------|
A|--------------------------------------------------------------------------|
F|--------------------------------------------------------------------------|
C|-5---3-5---7-7-7-7-7-7-7-7-9-9-9-9-9-9-9-9--------------------------------|
G|-5---3-5---7-7-7-7-7-7-7-7-9-9-9-9-9-9-9-9--------------------------------|
C|-5---3-5---7-7-7-7-7-7-7-7-9-9-9-9-9-9-9-9--------------------------------|

D|--------------------------------------------------------------------------|
A|--------------------------------------------------------------------------|
F|-----------------------------12-14----------------------------------------|
C|-5---3---5---3---5---7---9---------0--------------------------------------|
G|-5---3---5---3---5---7---9---------0--------------------------------------|
C|-5---3---5---3---5---7---9---------0--------------------------------------|

OUTRO

Guitar 1

D|--------------------------------------------------------------------------|
A|--------------------------------------------------------------------------|
F|-14-15----14-15-19-17-15-14-15---17-15-14---------------------------------|
C|-------17---------------------------------17-15-14------------------------|
G|--------------------------------------------------------------------------|
C|--------------------------------------------------------------------------|

D|--------------------------------------------------------------------------|
A|--------------------------------------------------------------------------|
F|-14-15----14-15---17---15---14---15-14---12-------------------------------|
C|-------17-----------------------------------------------------------------|
G|--------------------------------------------------------------------------|
C|--------------------------------------------------------------------------|

D|--------------------------------------------------------------------------|
A|--------------------------------------------------------------------------|
F|-17-15-14------------14-15----14-15-17---14-15----14-15-17-19-17-15-14p12-|
C|----------17-15-14---------17------------------17-------------------------|
G|--------------------------------------------------------------------------|
C|--------------------------------------------------------------------------|

D|--------------------------------------------------------------------------|
A|--------------------------------------------------------------------------|
F|-17-15-14------------14-15----14-15-17-17171717171717171919191919191919---|
C|----------17-15-14---------17---------------------------------------------|
G|--------------------------------------------------------------------------|
C|--------------------------------------------------------------------------|

D|--------------------------------------------------------------------------|
A|-/15---/17---/19---/21---/15---/17---/19---/21----------------------------|
F|--------------------------------------------------------------------------|
C|--------------------------------------------------------------------------|
G|--------------------------------------------------------------------------|
C|--------------------------------------------------------------------------|

D|-17p15p14-----------------------------------------------------------------|
A|----------17p15p14--------------------------------------------------------|
F|-------------------17p15p14-----------------------------------------------|
C|----------------------------17p15p1415p14p12------------------------------|
G|---------------------------------------------15p14p12---------------------|
C|------------------------------------------------------15p14p12p12p10p8p---|

D|--------------------------------------------------------------------------|
A|--------------------------------------------------------------------------|
F|-19---17---15---15p14---15---17-15-14------------15-14----14-15-17--------|
C|--------------------------------------17-15-14---------17-----------------|
G|--------------------------------------------------------------------------|
C|--------------------------------------------------------------------------|

D|--------------------------------------------------------------------------|
A|--------------------------------------------------------------------------|
F|-14-15----14-15-15-17-15-12-14p12---17-15-14-----------------14-15--------|
C|-------17-----------------------------------17-15-14-12-14-15-------------|
G|--------------------------------------------------------------------------|
C|--------------------------------------------------------------------------|

D|--------------------------------------------------------------------------|
A|--------------------------------------------------------------------------|
F|-17171717171717171919191919191919---19---17-------------------------------|
C|--------------------------------------------------------------------------|
G|--------------------------------------------------------------------------|
C|--------------------------------------------------------------------------|

Guitar 2

D|--------------------------------------------------------------------------|
A|--------------------------------------------------------------------------|
F|--------------------------------------------------------------------------|
C|-3-3-3-3-3-3-3-3-5-5-5-5-3-3-3-3-1-1-1-1-1-1-1-1-3-3-3-3-3-3-3-3----------|
G|-3-3-3-3-3-3-3-3-5-5-5-5-3-3-3-3-1-1-1-1-1-1-1-1-3-3-3-3-3-3-3-3----------|
C|-3-3-3-3-3-3-3-3-5-5-5-5-3-3-3-3-1-1-1-1-1-1-1-1-3-3-3-3-3-3-3-3----------|

D|--------------------------------------------------------------------------|
A|--------------------------------------------------------------------------|
F|-17---15---14---15-14---12------------------------------------------------|
C|--------------------------------------------------------------------------|
G|--------------------------------------------------------------------------|
C|--------------------------------------------------------------------------|

D|------------------------------------------------------------------------|
A|------------------------------------------------------------------------|
F|------------------------------------------------------------------------|
C|-1-1-1-1-1-1-1-1-3-3-3-3-3-3-3-3-5-5-5-5-5-7-5-3-5-3--------------------|
F|-1-1-1-1-1-1-1-1-3-3-3-3-3-3-3-3-5-5-5-5-5-7-5-3-5-3--------------------|
C|-1-1-1-1-1-1-1-1-3-3-3-3-3-3-3-3-5-5-5-5-5-7-5-3-5-3--------------------|

D|------------------------------------------------------------------------|
A|------------------------------------------------------------------------|
F|------------------------------------------------------------------------|
C|-1-1-1-1-1-1-1-1-3-3-3-3-3-3-3-3-0-0-0-0-0-0-0-0-3-3-3-3-5-5-5-5--------|
F|-1-1-1-1-1-1-1-1-3-3-3-3-3-3-3-3-0-0-0-0-0-0-0-0-3-3-3-3-5-5-5-5--------|
C|-1-1-1-1-1-1-1-1-3-3-3-3-3-3-3-3-0-0-0-0-0-0-0-0-3-3-3-3-5-5-5-5--------|
Pm                                 . . . . . . . .

D|------------------------------------------------------------------------|
A|------------------------------------------------------------------------|
F|------------------------------------------------------------------------|
C|-1-1-1-1-1-1-1-1-3-3-3-3-3-3-3-3-5-5-5-5-3-3-3-3-5-5-5-5----------------|
F|-1-1-1-1-1-1-1-1-3-3-3-3-3-3-3-3-5-5-5-5-3-3-3-3-5-5-5-5----------------|
C|-1-1-1-1-1-1-1-1-3-3-3-3-3-3-3-3-5-5-5-5-3-3-3-3-5-5-5-5----------------|

D|------------------------------------------------------------------------|
A|------------------------------------------------------------------------|
F|------------------------------------------------------------------------|
C|-1-1-1-1-1-1-1-1-3-3-3-3-3-3-3-3-0-0-0-0-0-0-0-0-0-0-0-0----------------|
F|-1-1-1-1-1-1-1-1-3-3-3-3-3-3-3-3-0-0-0-0-0-0-0-0-0-0-0-0----------------|
C|-1-1-1-1-1-1-1-1-3-3-3-3-3-3-3-3-0-0-0-0-0-0-0-0-0-0-0-0----------------|
Pm                                 . . . . . . . . . . . .

D|------------------------------------------------------------------------|
A|------------------------------------------------------------------------|
F|------------------------------------------------------------------------|
C|-1-1-1-1-1-1-1-1-3-3-3-3-3-3-3-3-5-5-5-5-5-7-5-3-5-3--------------------|
F|-1-1-1-1-1-1-1-1-3-3-3-3-3-3-3-3-5-5-5-5-5-7-5-3-5-3--------------------|
C|-1-1-1-1-1-1-1-1-3-3-3-3-3-3-3-3-5-5-5-5-5-7-5-3-5-3--------------------|

D|------------------------------------------------------------------------|
A|------------------------------------------------------------------------|
F|------------------------------------------------------------------------|
C|-1-1-1-1-1-1-1-1-3-3-3-3-3-3-3-3-0-0-0-0-0-0-0-0-0-0-0-0----------------|
F|-1-1-1-1-1-1-1-1-3-3-3-3-3-3-3-3-0-0-0-0-0-0-0-0-0-0-0-0----------------|
C|-1-1-1-1-1-1-1-1-3-3-3-3-3-3-3-3-0-0-0-0-0-0-0-0-0-0-0-0----------------|
Pm                                 . . . . . . . . . . . .

I know there are some overdub guitar effects on the outro/final chorus, but i haven't 
got around to tabbing them yet, I'll tab them at a later date.
Добавлено: 28.06.2012
Другие материалы по этой песне:
  • Аккорды и текст

Страница создана 28.06.2012
http://primanota.ru/beneath-the-sky/ill-call-this-my-own-chords.htm
Привет, Гость.
Предлагаем пройти революционный курс по гитаре.
Подарок от PrimaNota.Ru, забирай!