PrimaNota.ru - самый крупный в мире бесплатный архив песенных текстов, аккордов, табулатур и нот


Beneath The Sky - Goodfellas - таба, видео

Регистрация Запомнить меня
Войти через:  Facebook Google Twitter Vk Yandex Mail.ru

Beneath The Sky - Goodfellas - таба, видео

Печатать
Просмотров: 170
-------------------------------------------------------------------------------
Goodfellas – Beneath The Sky
-------------------------------------------------------------------------------
Tabbed by: Vertebraille 
Email:

Tuning: Drop C

Note : Palm mutes are not shown because they are pretty obvious niway. Just
listen to the song to find out when to mute it.

Verse
e|---------------------------------------------------------------------------|
B|---------------------------------------------------------------------------|
G|---------------------------------------------------------------------------|
D|-000-000-000-000-000-000-000-000---333---333---333-3-2------3-8------------|
A|-000-000-000-000-000-000-000-000-3-----3-----3-----3-2--or--3-8------------|
E|-000-000-000-000-000-000-000-000-------------------3-2------3-8------------|

e|---------------------------------------------------------------------------|
B|---------------------------------------------------------------------------|
G|---------------------------------------------------------------------------|
D|-0-00-000-000---------000--------0-0-0-000-000-000-000---------------------|
A|-0-00-000-000-1210810-000-121078-0-0-0-000-000-000-000---------------------|
E|-0-00-000-000---------000--------0-0-0-000-000-000-000---------------------|

e|---------------------------------------------------------------------------|
B|---------------------------------------------------------------------------|
G|---------------------------------------------------------------------------|
D|-0-00-000-000---------000---------0-0-000-000-000-000----------------------|
A|-0-00-000-000-1210810-000-8101312-0-0-000-000-000-000----------------------|
E|-0-00-000-000---------000---------0-0-000-000-000-000----------------------|


Breakdown 
e|---------------------------------------------------------------------------|
B|---------------------------------------------------------------------------|
G|---------------------------------------------------------------------------|
D|-0-0-000-000-000-00-000-000-000-00-000-000-000-----------------------------|
A|-0-0-000-000-000-00-000-000-000-00-000-000-000-----------------------------|
E|-0-0-000-000-000-00-000-000-000-00-000-000-000-----------------------------|

e|---------------------------------------------------------------------------|
B|---------------------------------------------------------------------------|
G|------------------------------------------------3/5-5/6--------------------|
D|-131-1p0-000-000-000-000-000--------------------x-x-x-x--------------------|
A|-131-1p0-000-000-000-000-000--------------------1-3-3-4--------------------|
E|-131-1p0-000-000-000-000-000-----------------------------------------------|

e|---------------------------------------------------------------------------|
B|---------------------------------------------------------------------------|
G|---------------------------------------------------------------------------|
D|-1p0-0-00000-00000-131-1p0-0-00000-00000--------131-1-00-1-00-3-0-1-131-0~-|
A|-1p0-0-00000-00000-131-1p0-0-00000-00000--------131-1-00-1-00-3-0-1-131-0~-|
E|-1p0-0-00000-00000-131-1p0-0-00000-00000--------131-1-00-1-00-3-0-1-131-0~-|

(To play with verse part, 8 times each)
e|---------------------------------------------------------------------------|
B|---------------------------------------------------------------------------|
G|-7----9---10--------7----9---7---------------------------------------------|
D|-x----x----x--------x----x---x---------------------------------------------|
A|-5----7----8--------5----7---5---------------------------------------------|
E|---------------------------------------------------------------------------|





Ending breakdown.

Either this…
e|---------------------------------------------------------------------------|
B|---------------------------------------------------------------------------|
G|--------------------------------------------------------7///---------------|
D|-0~~~--7-0000000-7-0000000-7-0000000-10108-10108--------x------------------|
A|-0~~~--5-0000000-5-0000000-5-0000000—-8-86--8-86--------5///---------------|
E|-0~~~----0000000---0000000---0000000---------------------------------------|

Or this I guess.
e|---------------------------------------------------------------------------|
B|---------------------------------------------------------------------------|
G|---------------------------------------------------------------------------|
D|-0~~~-0-0000000-0-0000000-0-0000000-331-331-------------0~~~---------------|
A|-0~~~-0-0000000-0-0000000-0-0000000-331-331-------------0~~~---------------|
E|-0~~~-0-0000000-0-0000000-0-0000000-331-331-------------0~~~---------------|


Добавлено: 15.04.2012
Другие материалы по этой песне:
  • Аккорды и текст

Страница создана 15.04.2012
http://primanota.ru/beneath-the-sky/goodfellas-chords.htm
Привет, Гость.
Предлагаем пройти революционный курс по гитаре.
Подарок от PrimaNota.Ru, забирай!