PrimaNota.ru - самый крупный в мире бесплатный архив песенных текстов, аккордов, табулатур и нот


Beneath The Sky - For Each Remembered Name - таба, видео

Регистрация Запомнить меня
Войти через:  Facebook Google Twitter Vk Yandex Mail.ru

Beneath The Sky - For Each Remembered Name - таба, видео

Печатать
Просмотров: 123
------------------------------------------|
------------------------------------------|
------------------------------------------|
----8--5--8--7--5-7-----8--5--8--7--5-7---|
------------------------------------------|
--00-00-00-00-00-0----00-00-00-00-00-0----|
  ** ** ** ** ** *    ** ** ** ** ** *

------------------------------------------|
------------------------------------------|
------------------------------------------|
----3--5--3--5--3--7-5--2--1--2--1---0----|
------------------------------------------|
--00-00-00-00-00-00-0-00-00-00-00--00-----| Gtr. 1
  ** ** ** ** ** ** * ** ** ** **  **
------------------------|
------------------------|
------------------------|
-0------0-0---/--3------|
-0------0-0---/--3------|
-0------0-0---/--3------| Gtr. 2

---------------------------------------------------------------------|
--/-17--17-17-17-151515-131313-121212-131313-151515--/12-/13-/15--17-|
---------------------------------------------------------------------|
---------------------------------------------------------------------|
---------------------------------------------------------------------|
---------------------------------------------------------------------| Gtr. 2

------------------------------------------|
------------------------------------------|
------------------------------------------|
----8--5--8--7--5-7-----8--5--8--7--5-7---|
------------------------------------------|
--00-00-00-00-00-0----00-00-00-00-00-0----|
  ** ** ** ** ** *    ** ** ** ** ** *
------------------------------------------|
------------------------------------------|
------------------------------------------|
----3--5--3--5--3--7-5--2--1--2--1---0----|
------------------------------------------|
--00-00-00-00-00-00-0-00-00-00-00--00-----|  Both Gtrs
  ** ** ** ** ** ** * ** ** ** **  **
------------------------------------------|
------------------------------------------|
-------------1212121212121212--11111111---|
-000000000----x-x-x-x-x-x-x-x---x-x-x-x---|
-000000000---1010101010101010---9-9-9-9---|
-000000000--------------------------------|
 *********
----------------------------------------------|
----------------------------------------------|
--1212121212121212-11111111--1414141414141414-|
---x-x-x-x-x-x-x-x--x-x-x-x---x-x-x-x-x-x-x-x-|
--1010101010101010--9-9-9-9--1212121212121212-|
----------------------------------------------|

---------------------------------------------|
---------------------------------------------|
--12121212--13131313-11111111--9-9-9-9-------|
---x-x-x-x---x-x-x-x--x-x-x-x--x-x-x-x-------|
--10101010--11111111--9-9-9-9--7-7-7-7-------|
---------------------------------------------|

----------------------------------------------|
----------------------------------------------|
-1212121212121212-11111111---1212121212121212-|
--x-x-x-x-x-x-x-x--x-x-x-x----x-x-x-x-x-x-x-x-|
-1010101010101010--9-9-9-9---1010101010101010-|
----------------------------------------------|

----------------------------------------------|
----------------------------------------------|
-1212121212121212-11111111---1212121212121212-|
--x-x-x-x-x-x-x-x--x-x-x-x----x-x-x-x-x-x-x-x-|
-1010101010101010--9-9-9-9---1010101010101010-|
----------------------------------------------|

---------------------------------|
---------------------------------|
---15----999999--141414--121212--|
----x----xxxxxx---x-x-x---x-x-x--|
---13----777777--121212--101010--|
---------------------------------|

------------------------------------------|
------------------------------------------|
------------------------------------------|
----8--5--8--7--5-7-----8--5--8--7--5-7---|
------------------------------------------|
--00-00-00-00-00-0----00-00-00-00-00-0----|
  ** ** ** ** ** *    ** ** ** ** ** *
------------------------------------------|
------------------------------------------|
------------------------------------------|
----3--5--3--5--3--7-5--2--1--2--1---0----|
------------------------------------------|
--00-00-00-00-00-00-0-00-00-00-00--00-----|  Gtr.1
  ** ** ** ** ** ** * ** ** ** **  **
------------------------------------------|
------------------------------------------|
------------------------------------------|
----8--5--8--7--5-7-----8--5--8--7--5-7---|
------------------------------------------|
--00-00-00-00-00-0----00-00-00-00-00-0----|
  ** ** ** ** ** *    ** ** ** ** ** *
------------------------------------------|
------------------------------------------|
------------------------------------------|
----3--5--3--5--3--7-5--2--1--2--1---0----|
------------------------------------------|
--00-00-00-00-00-00-0-00-00-00-00--00-----|  Both Gtrs
  ** ** ** ** ** ** * ** ** ** **  **
---------------------------|
---------------------------|
---------------------------|
--00-00-0-0-00-00-00-0-0---|
--00-00-0-0-00-00-00-0-0---|
--00-00-0-0-00-00-00-0-0---|
  ** ** * * ** ** ** * *
--------------------------------------------|
--------------------------------------------|
--------------------------------------------|
----8--5--8--7--5-7----3--5--3--5--3--7--3--|
--------------------------------------------|
--00-00-00-00-00-0---00-00-00-00-00-00-00---|
  ** ** ** ** ** *   ** ** ** ** ** ** **

-----------------------------------------------------------|
-----------------------------------------------------------|
-----------------------------------------------------------|
-----------------------------------------------------------|
--888-777-333-888-777-333-888-777-333-777-888-101010-777---|
-----------------------------------------------------------|

-----------------------------------------------------------|
-----------------------------------------------------------|
-----------------------------------------------------------|
-----------------------------------------------------------|
--888-777-333-333-777-888-888-777-333-777-888-101010-777---|
-----------------------------------------------------------|

------------------------------------------------|
------------------------------------------------|
------------------------------------------------|
----7-5-------7-5--------7-5--------------------|
--------6h7-------6h7--------6h7--6-7-9-7-------|
--00--------00--------00------------------------|
  **        **        **
------------------------------------------|
------------------------------------------|
------------------------------------------|
----8--5--8--7--5-7-----8--5--8--7--5-7---|
------------------------------------------|
--00-00-00-00-00-0----00-00-00-00-00-0----|
  ** ** ** ** ** *    ** ** ** ** ** *
--------------------------------------|
--------------------------------------|
--------------------------------------|
--333333333-11111111--444-333---------|
--------------------------------------|
--------------------------------------|

-----------------------------------------------------------|
-----------------------------------------------------------|
-----------------------------------------------------------|
-----------------------------------------------------------|
--888-777-333-888-777-333-888-777-333-777-888-101010-777---|
-----------------------------------------------------------|

-----------------------------------------------------------|
-----------------------------------------------------------|
-----------------------------------------------------------|
-----------------------------------------------------------|
--888-777-333-333-777-888-888-777-333-777-888-101010-777---|
-----------------------------------------------------------|

------------------------------------------------|
------------------------------------------------|
------------------------------------------------|
----7-5-------7-5--------7-5--------------------|
--------6h7-------6h7--------6h7--6-7-9-7-------|
--00--------00--------00------------------------|
  **        **        **
--------------------------------------------------------|
--------------------------------------------------------|
--121212121212121212121212--101010101010101010101010----|
---x-x-x-x-x-x-x-x-x-x-x-x---x-x-x-x-x-x-x-x-x-x-x-x----|
--101010101010101010101010---8-8-8-8-8-8-8-8-8-8-8-8----|
--------------------------------------------------------|

-------------------------|
-------------------------|
-111111111111--99-77-5---|
--x-x-x-x-x-x--xx-xx-x---|
--9-9-9-9-9-9--77-55-3---|
-------------------------|

----------------------------------------------------------|
----------------------------------------------------------|
--121212121212121212121212--141414141414141414--15151515--|
---x-x-x-x-x-x-x-x-x-x-x-x---x-x-x-x-x-x-x-x-x---x-x-x-x--|
--101010101010101010101010--121212121212121212--13131313--|
----------------------------------------------------------|

------------------------------------------------------|
------------------------------------------------------|
--171717171717--15151515--141414141414----7-5h7p5-----|
---x-x-x-x-x-x---x-x-x-x---x-x-x-x-x-x-----------h7---|
--151515151515--13131313--121212121212----------------|
------------------------------------------------------|

------------------------------------------------|
------------------------------------------------|
------------------------------------------------|
----7-5-------7-5--------7-5--------------------|
--------6h7-------6h7--------6h7--6-7-9-7-------|
--00--------00--------00------------------------|
  **        **        **

------------------------------------------------|
------------------------------------------------|
------------------------------------------------|
----7-5-------7-5--------7-5--------------------|
--------6h7-------6h7--------6h7--6-7-9-7---12--|
--00--------00--------00------------------------|
  **        **        **
Добавлено: 13.05.2012
Другие материалы по этой песне:
  • Аккорды и текст

Страница создана 13.05.2012
http://primanota.ru/beneath-the-sky/for-each-remembered-name-chords.htm
Привет, Гость.
Предлагаем пройти революционный курс по гитаре.
Подарок от PrimaNota.Ru, забирай!