PrimaNota.ru - самый крупный в мире бесплатный архив песенных текстов, аккордов, табулатур и нот


Beneath The Sky - 7861 - текст песни, таба, бас-таба, видео

Регистрация Запомнить меня
Войти через:  Facebook Google Twitter Vk Yandex Mail.ru

Beneath The Sky - 7861 - текст песни, таба, бас-таба, видео

Печатать
Просмотров: 251
im sick of waitin for someone else to tab them. heres like the first minute of 7861. 
please continue on to it and do other songs

e----------------------------------------------------------------------------|
B|---------------------------------------------------------------------------|
G|---------------------------------------------------------------------------|
D|----0000000000-------000000000--1---1-------0-00-0000----00000000----------|
A|----0000000000-------000000000--1---1-------0-00-0000----00000000----------|
D|-12\0000000000-------000000000--1---1-------0-00-0000----00000000----------|
   *************  7861 *********black thorn   *********    ********

e|--------------------------------------------------------------------------|
B|--------------------------------------------------------------------------|
G|--------------------------------------------------------------------------|
D|-0----3---1-------00000000---------------------0-00-0000------------------|
A|-0----3---1-------00000000---------------------0-00-0000------------------|
E|-0----3---1-------00000000---------------------0-00-0000------------------|
                             they found the body          hangin from the...

e|---------------------------------------------------------------------------|
B|---------------------------------------------------------------------------|
G|---------------------------------------------------------------------------|
D|-00000000-------------000000000-----------------------0----1----3----------|
A|-00000000-------------000000000-----------------------0----1----3----------|
E|-00000000-------------000000000-----------------------0----1----3----------|
            once again            im starring down at a

e|--------------------------------------------------------------------------|
B|--------------------------------------------------------------------------|
G|--------------------------------------------------------------------------|
D|-1000000--1000000--1000000--1030403---------------------------------------|
A|-1000000--1000000--1000000--1030403---------------------------------------|
E|-1000000--1000000--1000000--1030403---------------------------------------|
   casket   casket...         run far away (2x)

e|--------------------------------------------------------------------------|
B|--------------------------------------------------------------------------|
G|--------------------------------------------------------------------------|
D|-0------------------------------------------------------------------------|
A|-5--8---13-12-13-12-/10-8-------------------------------------------------|
E|-0------------------------------------------------------------------------|
play like 3x

e|--------------------------------------------------------------------------|
B|--------------------------------------------------------------------------|
G|--------------------------------------------------------------------------|
D|--------------------------------------------------------------------------|
A|-5---8-7-8-10---00--10--8--6--0-0-11-11-10-6------------------------------|
E|----------------00----0--0----0-0-----------------------------------------|
then

www.myspace.com/beneaththesky
Добавлено: 21.03.2012
Другие материалы по этой песне:

Страница создана 17.03.2012
http://primanota.ru/beneath-the-sky/7861-chords.htm
Привет, Гость.
Предлагаем пройти революционный курс по гитаре.
Подарок от PrimaNota.Ru, забирай!