PrimaNota.ru - самый крупный в мире бесплатный архив песенных текстов, аккордов, табулатур и нот


Benea Reach - Inheritor - таба, видео

Регистрация Запомнить меня
Войти через:  Facebook Google Twitter Vk Yandex Mail.ru

Benea Reach - Inheritor - таба, видео

Печатать
Просмотров: 150
Benea Reach - Inheritor

Tuning: 2 steps down and Drop The C to A# 

(A# F A# D# G C or Bb F Bb Eb G C)


Intro:

Guitar 1 - 
 C|--------------------------------|
 G|--------------------------------|
D#|--5-5-5--5-5-5--4-4-4--1-1-2-4--|
A#|--------------------------------| X2
 F|---0-0-00-0-0-00-0-0-00-0-0-----|
A#|--------------------------------|


Main Riff:

Guitar 1 and 2
 C|--------------------------------|
 G|--------------------------------|
D#|--5-5-5--5-5-5--4-4-4--1-1-2-4--|
A#|--------------------------------| X2
 F|---0-0-00-0-0-00-0-0-00-0-0-----|
A#|--------------------------------|
 

Guitar 1
 C|-----------------------------|
 G|--4-4-4--4-4-4--4-4--4-4-4---|
D#|-----------------------------|
A#|---0-0-00-0-0-00-0-0--0-0-0--| X2
 F|-------------------0------0--|
A#|-------------------0------0--|



Main Riff:

Guitar 1 and 2
 C|--------------------------------|
 G|--------------------------------|
D#|--5-5-5--5-5-5--4-4-4--1-1-2-4--|
A#|--------------------------------| x3
 F|---0-0-00-0-0-00-0-0-00-0-0-----|
A#|--------------------------------|

Guitar 1 and 2
 C|----------------------------|
 G|----------------------------|
D#|--5-5-5--5-5-5--4-4-4--1-1--|
A#|----------------------------|
 F|---0-0-00-0-0-00-0-0-00-0---|
A#|----------------------------|



Chorus: Running...Falling... 

Guitar 1 and 2                             1st        2nd
 C|-------------------------------|----------|----------|
 G|-------------------------------|----------|----------|
D#|-------------------------------|----------|-5-5------|
A#|--3-3-0000-3-3-0000-5/7-7-0000-|-5-5-0000-|-3-3-0000-|
 F|--1-1-0000-1-1-0000-3/5-5-0000-|-3-3-0000-|-3-3-0000-|
A#|------0000-----0000-------0000-|-----0000-|-----0000-|
PM       ----     ----       ----       ----       ----


Main Riff:

Guitar 1 and 2
 C|--------------------------------|
 G|--------------------------------|
D#|--5-5-5--5-5-5--4-4-4--1-1-2-4--|
A#|--------------------------------|
 F|---0-0-00-0-0-00-0-0-00-0-0-----|
A#|--------------------------------|


Guitar 1 and 2
 C|-----------------------------|
 G|--4-4-4--4-4-4--4-4--4-4-4---|
D#|-----------------------------|
A#|---0-0-00-0-0-00-0-0--0-0-0--| X4
 F|-------------------0------0--|
A#|-------------------0------0--|


Solo:

Guitar 1
C|-151515h18-----------------------------------------------------------------|
G|----------17-14-12---------------------------------------------------------|
D#|-----------------151515p141414--------------------------------------------|
A#|-------------------------------151515-5h777-9991010----77777--9999-101010-|
F|---------------------------------------------------------------------------|
A#|--------------------------------------------------------------------------|

Guitar 2                                  
 C|---------------------------------------------------------------------------|
G|---------------------------------------------------------------------------|
D#|--------------------------------------------------------------------------|
A#|-333333~-3~----0~---33333~-0~---3~-----33333~-0~---3~---33333~-0~---3~----|
F|--111111~-3~----0~---11111~-0~---3~-----11111~-0~---3~---11111~-0~---3~----|
A#|---------3~----0~----------0~---3~------------0~---3~----------0~---3~----|


Chorus: Running...Falling... 
Guitar 1
 C|-----------------------------------------|
 G|--------------------5h6------------------|
D#|--5h7p-----5h7p-----5-5---------5-5------|
A#|--3-3-0000-3-3-0000-3-3---0000--3-3-0000-| X2
 F|--3-3-0000-3-3-0000-3-3---0000--3-3-0000-|
A#|--3-3-0000-3-3-0000-3-3---0000--3-3-0000-|
PM       ----     ----       ----      ---- 

Guitar 2                    
 C|-----------------------------------------|
 G|-----------------------------------------|
D#|--------------------------------5-5------|
A#|--3-3-0000-3-3-0000-5/7-7-0000--3-3-0000-| X2
 F|--1-1-0000-1-1-0000-3/5-5-0000--3-3-0000-|
A#|------0000-----0000-------0000--3-3-0000-|
PM       ----     ----       ----      ---- 

---------------------

Guitar 1 
 C|-----------------------------------------|
 G|-----------------------------------------|
D#|--------------------------------5-5------|
A#|--3-3-0000-3-3-0000-5/7-7-0000--3-3-0000-|
 F|--1-1-0000-1-1-0000-3/5-5-0000--3-3-0000-|
A#|------0000-----0000-------0000------0000-|
PM       ----     ----       ----      ---- 

---------------------

Guitar 1
 C|-----------------------------------------|
 G|--------------------5h6------------------|
D#|--5h7p-----5h7p-----5-5---------5-5------|
A#|--3-3-0000-3-3-0000-3-3---0000--3-3-0000-| X4
 F|--3-3-0000-3-3-0000-3-3---0000--3-3-0000-|
A#|--3-3-0000-3-3-0000-3-3---0000--3-3-0000-|
PM       ----     ----       ----      ---- 

Guitar 2                    
 C|-----------------------------------------|
 G|-----------------------------------------|
D#|--------------------------------5-5------|
A#|--3-3-0000-3-3-0000-5/7-7-0000--3-3-0000-| X4
 F|--1-1-0000-1-1-0000-3/5-5-0000--3-3-0000-|
A#|------0000-----0000-------0000--3-3-0000-|
PM       ----     ----       ----      ---- 


Main Riff

Guitar 1 and 2
 C|-----------------------------|
 G|--4-4-4--4-4-4--4-4--4-4-4---|
D#|-----------------------------|
A#|---0-0-00-0-0-00-0-0--0-0-0--|
 F|-------------------0------0--|
A#|-------------------0------0--|

Guitar 1 and 2
 C|--------------------------------|
 G|--------------------------------|
D#|--5-5-5--5-5-5--4-4-4--1-1-2-4--|
A#|--------------------------------| X2
 F|---0-0-00-0-0-00-0-0-00-0-0-----|
A#|--------------------------------|


Guitar 1 and 2
 C|-----------------------------|
 G|--4-4-4--4-4-4--4-4--4-4-4---|
D#|-----------------------------|
A#|---0-0-00-0-0-00-0-0--0-0-0~-|
 F|-------------------0------0~-|
A#|-------------------0------0~-|

Not Perfect but pretty close. Great Song.

http://www.beneareach.com/
Добавлено: 05.03.2012
Вам также может быть интересно:
Другие материалы по этой песне:
  • Аккорды и текст

Страница создана 05.03.2012
http://primanota.ru/benea-reach/inheritor-chords.htm
Привет, Гость.
Предлагаем пройти революционный курс по гитаре.
Подарок от PrimaNota.Ru, забирай!