PrimaNota.ru - самый крупный в мире бесплатный архив песенных текстов, аккордов, табулатур и нот


Ben Willis - Crawl - таба, видео

Регистрация Запомнить меня
Войти через:  Facebook Google Twitter Vk Yandex Mail.ru

Ben Willis - Crawl - таба, видео

Печатать
Просмотров: 162
Уроки эстрадного вокала в Санкт-Петербурге
-------------------------------------------------------------------------------
                             CRAWL - Ben Willis
-------------------------------------------------------------------------------
Tabbed by: Nathan
E-mail: nathanmcguire97@gmail.com

Tuning: Standard
Capo 1

E|---------------------------------------2-----------------------------------------
B|-------0---------------3-------------------------------3---------------3---------
G|---0-------0---0---0-------0---0---0-------0---0---0-------0---0---0-------0---0-
D|-2---2---2---2-------------------2---2---2---2-----------------------------------
A|-----------------3---3---3---3-------------------3---3---3---3---3---3---3---3---
E|---------------------------------------------------------------------------------

This repeats the whole way through the song. All done by ear, first tab, thanks!
Добавлено: 13.05.2016
Другие материалы по этой песне:
  • Аккорды и текст

Страница создана 13.05.2016
http://primanota.ru/ben-willis/crawl-chords.htm
Привет, Гость.
Предлагаем пройти революционный курс по гитаре.
Подарок от PrimaNota.Ru, забирай!