PrimaNota.ru - самый крупный в мире бесплатный архив песенных текстов, аккордов, табулатур и нот


Ben Rector - Paris - таба, видео

Регистрация Запомнить меня
Войти через:  Facebook Google Twitter Vk Yandex Mail.ru

Ben Rector - Paris - таба, видео

Печатать
Просмотров: 45
-------------------------------------------------------------------------------
                             SONG NAME - Paris
-------------------------------------------------------------------------------
Tabbed by:kellyehenry
E-mail:kellyehenry@sbcglobal.net

Tuning: standard
Key of D
Capo 2
tab relative to capo

intro:

e|--0-----------------------|--0---------------------|
B|-----3--1--0--------------|----3--1--0-------------|
G|--------------2--0--------|-------------2--0-------|
D|--------------------3--2--|------------------3--2--|
A|--------------------------|------------------------|
E|--------------------------|------------------------|

e|--0-------------------------------------------|
B|-----3--1--0----------------------------------|
G|--------------2--0-----0--------------0-------|
D|--------------------3-----3--2--2h/3-----3--2-|
A|----------------------------------------------|
E|----------------------------------------------|


Verse 1:
e|--0-----------------------|--0---------------------|
B|-----3--1--0--------------|----3--1--0-------------|
G|--------------2--0--------|-------------2--0-------|
D|--------------------3--2--|------------------3--2--|
A|--------------------------|------------------------|
E|--------------------------|------------------------|

e|--0-------------------------------------------|
B|-----3--1--0----------------------------------|
G|--------------2--0-----0--------------0-------|  x2
D|--------------------3-----3--2--2h/3-----3--2-|
A|----------------------------------------------|
E|----------------------------------------------|

I haven't seen her 
For a month or so 
Young love feels like finding buried gold 

We meet in Paris
Fly straight through the night
And my heart feels just like new sunglasses in the taxi ride

Chorus:  
 F               G
I remember who we are
Em                         Dm
When we're being young and dumb
 F                 G              C
Paris feels like falling back in love

riff
Back in love

Verse 2:
play riff throughout or chords
e|--0-----------------------|--0---------------------|
B|-----3--1--0--------------|----3--1--0-------------|
G|--------------2--0--------|-------------2--0-------|
D|--------------------3--2--|------------------3--2--|
A|--------------------------|------------------------|
E|--------------------------|------------------------|

e|--0-------------------------------------------|
B|-----3--1--0----------------------------------|
G|--------------2--0-----0--------------0-------|
D|--------------------3-----3--2--2h/3-----3--2-|
A|----------------------------------------------|
E|----------------------------------------------|

           C
Now were walking
          G            C
Talking hand in hand, yeah
   F             G                    C
Nervous at the bakery, not speaking French
            C              C      G
And she is smiling, she is beautiful
             C                G            C
And I feel sixteen while we, we are making love

Oh yeah

Chorus:  
  F               G
I remember who we are
Em                         Dm
When we're being young and dumb
 F                 G              C
Paris feels like falling back in love

  F               G
I remember who we are
Em                         Dm
When we're being young and dumb
 F                 G              C
Paris feels like falling back in love

Instrumental:
C C4 F Am Adim C x2

Falling back in love

e|--0-----------------------|--0---------------------|
B|-----3--1--0--------------|----3--1--0-------------|
G|--------------2--0--------|-------------2--0-------|
D|--------------------3--2--|------------------3--2--|
A|--------------------------|------------------------|
E|--------------------------|------------------------|

e|--0-------------------------------------------|
B|-----3--1--0----------------------------------|
G|--------------2--0-----0--------------0-------|
D|--------------------3-----3--2--2h/3-----3--2-|
A|----------------------------------------------|
E|----------------------------------------------|

I haven't seen her
For a month or so
Young love feels like finding buried gold

************************************

| /   slide up
| \   slide down
| h   hammer-on
| p   pull-off
| ~   vibrato
| +   harmonic
| x   Mute note
| b   Bend
| pb  Pre-bend
| br  Bend release
| pbr Pre-bend release
| brb Bend release bend

************************************

Добавлено: 28.03.2016
Другие материалы по этой песне:
  • Аккорды и текст

Страница создана 28.03.2016
http://primanota.ru/ben-rector/paris-chords.htm
Привет, Гость.
Предлагаем пройти революционный курс по гитаре.
Подарок от PrimaNota.Ru, забирай!