PrimaNota.ru - самый крупный в мире бесплатный архив песенных текстов, аккордов, табулатур и нот


Ben Rector - Dance With Me Baby - аккорды и текст, видео

Регистрация Запомнить меня
Войти через:  Facebook Google Twitter Vk Yandex Mail.ru

Ben Rector - Dance With Me Baby - аккорды и текст, видео

Печатать
Просмотров: 184
Dance With Me Baby
Ben Rector
-------------------------------------------------------------------------------
                                                Dance With Me Baby - Ben Rector
-------------------------------------------------------------------------------
Tabbed by: lmcoon

Tuning: Standard

Please send me a message if you think of any corrections, thanks.


     C*  Am7   C   F#/D  E   C9  Gadd9  D?   A   Am    C*riff
e|---3----x----x----2----3----3----3----0----x----x-------3-------------------|
B|---1----1----1----3----3----3----0----3----2----1-------0h1-----------------|
G|---0----0----2----2----0----0----0----0----2----2-------0-------------------|
D|---2----2----0----0----2----2----0----4----2----2-------0h2-----------------|
A|---x----0----3----0----2----3----0----5----0----0-------x-------------------|
E|---3----x----x----2----0----x----3----x----x----x-----3-3-------------------|

Intro: is C*riff played repeatedly

Verse:
         Am7
And do I leave for California
        C                                  C* riff
When my love is here behind in Tennessee?
         Am7
From the night times and the mornings
     C                                  C*riff        F#/D
I am aching for the better part of me

Pre:
       E
I've a thousand miles behind me
      C9                             Gadd9    D?
And a thousand more that I have yet to go
       E
Well, I kept all of your letters 
        C9                                Gadd9
Reading in between the white lines on the road
                       D?
The white lines on the road

Chorus:
             E             C             Gadd9
So won't you come home and dance with me baby
                E              C               Gadd9
Cause I've been traveling this road that is so dark
             E             C             Gadd9
So won't you come home and dance with me baby
                   A
Cause its been too long
             Am
Its been too long

C*riff

Verse:
And I find I am divided between here and there
And them and you and me
And I know this dream that I am chasing
Can very well go and be the death of me

Pre:
So darling, don't you worry
I'll be there before you can close your eyes
I'll be there to kiss my baby
And dance with you until the morning light
Until the morning light

Chorus:
So won't you come home and dance with me baby
Cause I've been traveling this road that is so dark
So won't you come home and dance with me baby
Cause its been too long
Its been too long
Oh, yeah
Добавлено: 17.03.2012
Другие материалы по этой песне:
  • Аккорды и текст

Страница создана 15.03.2012
http://primanota.ru/ben-rector/dance-with-me-baby-chords.htm
Привет, Гость.
Предлагаем пройти революционный курс по гитаре.
Подарок от PrimaNota.Ru, забирай!