PrimaNota.ru - самый крупный в мире бесплатный архив песенных текстов, аккордов, табулатур и нот


Ben Marwood - Under Lock And Key - таба, видео

Регистрация Запомнить меня
Войти через:  Facebook Google Twitter Vk Yandex Mail.ru

Ben Marwood - Under Lock And Key - таба, видео

Печатать
Просмотров: 96
-------------------------------------------------------------------------------
                             Under Lock and Key - Ben Marwood
-------------------------------------------------------------------------------
Tabbed by: Neil Wicker
E-mail: wicker101@hotmail.co.uk

Tuning: Standard

This is yet unreleased but set to be on Ben's second album. You can listen to it 
here - http://www.youtube.com/watch?v=2ZOwqtbrp0g
however this tab is based on a live demo mp3 so may differ very slightly.

you can listen to my cover here - http://soundcloud.com/wicker101/under-lock-guitar-only

capo 3

Intro:

   C
e|--------------------|--------------------|
B|-----1-----------1--|-----1-----------1--|
G|-----------0--------|-----------0--------|
D|-----2--------2-----|-----2--------2-----|
A|--3-----3-----------|--0-----0-----------|
E|--------------------|--------------------|

   Em                   G   
e|--------------------|----3-----------3-----------|
B|-----0-----------0--|----3-----------------3-----|
G|--------------------|----0--------------------0--|
D|-----2-----2--------|----0-----------------------|
A|--------------------|----2-----------------------|
E|--0-----0-----2-----|-3--3--0--2--3-----3--------|

   D                                                      
e|----0h2-----------0-|-------------------|
B|------------3-------|----3-----------3--|
G|---------------2----|----2-----2--------|
D|-0-------0----------|-------------0-----|
A|--------------------|-3-----3-----------|
E|--------------------|-------------------|


                         Em
e|--------------------|--------------------|
B|-----3-----------3--|-----0-----------0--|
G|-----2-----2--------|--------------------|
D|--------------0-----|-----2-----2--------|
A|--0-----0-----------|--------------------|
E|--------------------|--0-----0-----2-----|

    G                           D
e|-----3-----------3-----------|-----0h2-----------0--|
B|-----3-----------------3-----|-------------3--------|
G|-----0--------------------0--|----------------2-----|
D|-----0-----------------------|--0-------0-----------|
A|-----2-----------------------|----------------------|
E|--3--3--0--2--3-----3--------|----------------------|

e|--------------------|--------------------|--------|
B|-----3-----------3--|-----3-----------3--|--------|
G|-----2-----2--------|-----2-----2--------|--------|
D|--------------0-----|--------------0-----|--------|
A|--3-----3-----------|--3-----3-----------|--0--2--|
E|--------------------|--------------------|--------|

verse: (same as intro)                    I've got

eyes on the back of my head she said
and then she turned her back
but she didn't see the blow that I would land
and under crumpled legs 
the fire in her eyes snuffed out
now we must return her body to the ground 

pre-chorus:

    C                                    C*                               
e|---------------------------------------|--------------------------------------|
B|-----1------------1-----1-----------1--|-----3-----------3-----3-----------3--|
G|-----------0------------------0--------|-----------0-----------------0--------|
D|-----2--------2---------2--------2-----|-----4--------4--------4--------4-----|
A|--3-----3------------3-----3-----------|--0-----0-----------5-----5-----------|
E|---------------------------------------|--------------------------------------|

    C                                    C*                               
e|---------------------------------------|-----------------------0--------------|
B|-----1------------1-----1-----------1--|-----3-----------3-----3-----------3--|
G|-----------0------------------0--------|-----------0-----------0-----0--------|
D|-----2--------2---------2--------2-----|-----4--------4--------4--------4-----|
A|--3-----3------------0-----0-----------|--0-----0-----------5--5--------------|
E|---------------------------------------|--------------------------------------|


and the words she said as we wrecked her bed
were any port in a storm
and the ship is sailed with the mission failed
but we were always bound for war
like everybody else

Chorus:

Em         G                D
you should keep someone like me
      Cadd9  G* Em7
under lock and key

Em - 022000
G  - 320033
D  - 000232
Cadd9 - 032033
G* - 020033
Em7 - 022033
C* - 054030

song order:

Intro
verse 
chorus x2
intro
verse
chorus repeated till end


************************************

| /   slide up
| \   slide down
| h   hammer-on
| p   pull-off
| ~   vibrato
| +   harmonic
| x   Mute note
| b   Bend
| pb  Pre-bend
| br  Bend release
| pbr Pre-bend release
| brb Bend release bend

************************************
Добавлено: 05.07.2013
Другие материалы по этой песне:
  • Аккорды и текст

Страница создана 25.06.2013
http://primanota.ru/ben-marwood/under-lock-and-key-chords.htm
Привет, Гость.
Предлагаем пройти революционный курс по гитаре.
Подарок от PrimaNota.Ru, забирай!