PrimaNota.ru - самый крупный в мире бесплатный архив песенных текстов, аккордов, табулатур и нот


Ben Marwood - The Day I Got Stuck - таба, видео

Регистрация Запомнить меня
Войти через:  Facebook Google Twitter Vk Yandex Mail.ru

Ben Marwood - The Day I Got Stuck - таба, видео

Печатать
Просмотров: 98
-------------------------------------------------------------------------------
The Day I Got Stuck - Ben Marwood
-------------------------------------------------------------------------------
Tabbed by: Scott :)
E-mail: scottnorris152@gmail.com
Tuning: Standard

PM---------------------------------|
e|---------------------------------|
B|---------------------------------|
G|---------------------------------|
D|13--13--13--13--13--13--13--13---|
A|13--13--13--13--13--13--13--13---|
E|11--11--11--11--11--11--11--11---| x2

PM----------------------------|
e|----------------------------|
B|----------------------------|
G|----------------------------| He comes and he goes
D|13--13--8--8--11--11--6--6--| and he comes and he goes,
A|13--13--8--8--11--11--6--6--|
E|11--11--6--6--9---9---4--4--|

PM--------------------------|
e|--------------------------|
B|--------------------------|
G|--------------------------| But he don't come.
D|9--9--4--4--11--11--6--6--|
A|9--9--4--4--11--11--6--6--|
E|7--7--2--2--9---9---4--4--| (repeat last 2 bars)
And oh will he stay? Maybe he just might, but the next thing you know, he's on the 
next flight and i...
CHORUS
PM------------------------|
e|------------------------|
B|------------------------| I'm on my bike and
G|------------------------| he's on his train,
D|4--4--4--4--4--4--4--4--|
A|4--4--4--4--4--4--4--4--|
E|2--2--2--2--2--2--2--2--|

PM--------------------------------------------------------------|
e|--------------------------------------------------------------|
B|--------------------------| I guess he's on his way back. G|--|
D|11--11--11--11--6--6--6--6------------------------------------|
A|11--11--11--11--6--6--6--6------------------------------------|
E|9---9---9---9---4--4--4--4------------------------------------| (repeat last 2 bars)
I guess he's on his way back. Coming in from the edge of the track.

PM-------------------------|
e|-------------------------|
B|-------------------------|
G|-------------------------| (on second time)
D|6--6--6--6--6--6--6--6---| 1...2...1, 2, 3, 4.
A|6--6--6--6--6--6--6--6---|
E|4--4--4--4--4--4--4--4---| x2

e|------------------------------------------------------------|
B|------------------------------------------------------------|
G|------------------------------------------------------------|
D|--13--13--13-13-13--8--8--8-8-8--11-11-11-11-11--6--6--6-6-6|
A|--13--13--13-13-13--8--8--8-8-8--11-11-11-11-11--6--6--6-6-6|
E|1/11--11--11-11-11--6--6--6-6-6--9--9--9--9--9---4--4--4-4-4|

e|-----------------------------------------------------|
B|-----------------------------------------------------|
G|-----------------------------------------------------|
D|9--9--9-9-9--4--4--4-4-4--11-11-11-11-11--6--6--6-6-6|
A|9--9--9-9-9--4--4--4-4-4--11-11-11-11-11--6--6--6-6-6|
E|7--7--7-7-7--2--2--2-2-2--9--9--9--9--9---4--4--4-4-4|
(repeat last 2 bars twice) He comes and he goes and he comes and he goes, but he don't
come. Half here, half there, no time to spare, and then he's gone for four long years.
I've got nothing to say to that.

CHORUS
e|------------------------|
B|------------------------|
G|------------------------| but I'm on my bike and
D|4--4--4-4-4--4--4--4-4-4| he's on his train.
A|4--4--4-4-4--4--4--4-4-4|
E|2--2--2-2-2--2--2--2-2-2| x2

e|-------------------------------------------|
B|-------------------------------------------|
G|-------------------------------------------| I guess he's on his way back.
D|11--11--11-11-11---------6--6--6-6-6-------|
A|11--11--11-11-11---------6--6--6-6-6-------|
E|9---9---9--9--9---(x2)---4--4--4-4-4---(x2)|

e|------------------------|
B|------------------------|
G|------------------------| I guess he's on his way back.
D|4--4--4-4-4--4--4--4-4-4|
A|4--4--4-4-4--4--4--4-4-4|
E|2--2--2-2-2--2--2--2-2-2| x2

e|-------------------------------------------|
B|-------------------------------------------|
G|-------------------------------------------| Coming in from the edge
D|11--11--11-11-11---------8--8--8-8-8-------| of the track.
A|11--11--11-11-11---------8--8--8-8-8-------|
E|9---9---9--9--9---(x2)---6--6--6-6-6---(x2)|

Soloooo! Guitar 2: (same strumming pattern)
e|---------------------------------------------------| |-----------------|
B|----6-7-6-4----------------------------------------| |-----------------|
G|8-8---------3-4----8-6--------4h64-----------------| |8----------------|
D|-----------------------4----------8-6-----8-6------| |8----9----4----11|
A|----------------------------------------------9-8-6| |6----9----4----11|
E|---------------------------------------------------| |-----7----2----9-|

e|---------------------------------------------------| |-----------------|
B|---------------------------------------------------| |-----------------|
G|------------4h6h4--------------------------------11| |----------6------|
D|6p4p3-----6------8-6-8-8-8-6------/12-----/12-13---| |6----4----6----8-|
A|------4------------------------9-------------------| |6----4----4----8-|
E|---------------------------------------------------| |4----2---------6-| (Repeat guitar 2)
I got myself into a great big mess, that you wouldn't expect more or less, from a low
class citizen, like me. Got stuck in traffic and I, I took the shortcut. Soloooo! Guitar
2: Continue same chords

e|--------------------------------------------------------|
B|--------------------------------------------------------|
G|4h6h4-3---------------7-7-7-8-10--11-10-8----8-6--------|
D|--------6-8-8-8-6------------8--8---8--8-8------4--/11p8| Well i chose that,
A|------------------9-----------------------9-------------| and i had my laugh well...
E|--------------------------------------------------------|

e|-----------------------------------------------------------|
B|-----------------------------------------------------------| Then came the day,
G|4h6h4-3/1-----------------------------------------8-8---8/6| they put me in this dark place to stay
D|-----------8-6---------9h11h9----------8-8-8-6-------------| and i think of him...
A|--------------9-8-6----------11-8--11----------9-----------| and i think of him, whoaaaa!
E|----------------------------------9------------------------|

CHORUS (change 466 to 688 second time round.)
e|-----------|
B|-----------|
G|-----------| I'm on my bike and he's on his train.
D|4--4--11--6| I guess he's on his way back
A|4--4--11--6| I guess he's on his way back.
E|2--2--9---4| x2
Coming in from the edge of the track. and oh, (Hold 688 on second time round)

e|---------------|
B|---------------|
G|---------------| I'm on my bike and he's on his train.
D|4--4--11--6----| I guess he's on his way back
A|4--4--11--6----| I hear he's on his way back.
E|2--2--9---4----| x2 Coming in from the edge of the track.

e|---------------|
B|---------------|
G|---------------| He comes and he goes
D|13--8--11--6--4| and he comes and he goes,
A|13--8--11--6--4| and he didn't come.
E|11--6--9---4--2|

Lyrics
He comes and he goes and he comes and he goes, but he don't come.
And oh will he stay? Maybe he just might, but the next thing you know, he's on the 
next flight and i...
I'm on my bike and he's on his train, I guess he's on his way back.
I guess he's on his way back, coming in from the edge of the track.

1...2...1,2,3,4.

He comes and he goes and he comes and he goes, but he don't come.
Half here, half there, no time to spare, and then he's gone for four long years.
I've got nothing to say to that.

I'm on my bike and he's on his train, I guess he's on his way back.
I guess he's on his way back, coming in from the edge of the track.

I got myself into a great big mess, that you wouldn't expect more or less, from a low
class citizen, like me. Got stuck in traffic and i took the shortcut, well i chose that
and i had my laugh well... Then came the day, they put me in this dark place to stay. 
And I think of him, I think of him. Whooaaa! I'm on my bike and he's on his train, I guess
he's on his way back. I guess he's on his way back, coming in from the edge of the 
track. I'm on my bike and he's on his train, I guess he's on his way back. I hear he's on his 
way back, coming in from the edge of the track. He comes and he goes and he comes 
and he goes, but he didn't come.

************************************
| / slide up
| \ slide down
| h hammer-on
| p pull-off
| ~ vibrato
| + harmonic
| x Mute note
| b Bend
| pb Pre-bend
| br Bend release
| pbr Pre-bend release
| brb Bend release bend
************************************
Добавлено: 18.06.2013
Другие материалы по этой песне:
  • Аккорды и текст

Страница создана 18.06.2013
http://primanota.ru/ben-marwood/the-day-i-got-stuck-chords.htm
Привет, Гость.
Предлагаем пройти революционный курс по гитаре.
Подарок от PrimaNota.Ru, забирай!