PrimaNota.ru - самый крупный в мире бесплатный архив песенных текстов, аккордов, табулатур и нот


Ben Marwood - Question Marks - таба, видео

Регистрация Запомнить меня
Войти через:  Facebook Google Twitter Vk Yandex Mail.ru

Ben Marwood - Question Marks - таба, видео

Печатать
Просмотров: 150
Same riff throughout the verses, fingerpicked as usual. I've updated the tab after 
checking a video at the recommendation of the guy that commented, and this sounds a little 
more right. Also corrected a few words.

---------------------|
--8---7--5--3--1--3--|
--0---0--0--0--0--0--|
---------------------|
--10--9--7--5--3--5--|
---------------------|x4

He met her eyes at a party now i'll meet his face with my
fist until all that surrounds me is smothered and covered in
kisses that heal all the hurt that she feels and which answer down roads on the
streetlights at home on the nights when noone was there to guide her and keep her from

------------|
--8---7--5--|
--0---0--0--|
------------|
--10--9--7--|
------------|

doing harm

-----------|
--1--3--5--|
--0--0--0--|
-----------|
--3--5--7--|
-----------|

And I gathered them all on the border

------------------|
--1--3--8---7--5--|
--0--0--0---0--0--|
------------------|
--3--5--10--9--7--|
------------------|x2

and I wait for you all just to settle down
I tell you all about how get cape wear cape stole my sound

------------|
--1--3--8---|
--0--0--0---|
------------|
--3--5--10--|
------------|

and i'm telling you it doesnt matter now

verse

---------------------|
--8---7--5--3--1--3--|
--0---0--0--0--0--0--|
---------------------|
--10--9--7--5--3--5--|
---------------------|x4

Well I will not preach revolution, cause i'm not so dumb as to
think that I have the solution, to all of these things and as i've
sat at the back of the funeral packed with the grievers and mourners it
occured to me that the things that we see aren't nearly as vital as

------------|
--8---7--5--|
--0---0--0--|
------------|
--10--9--7--|
------------|

those we dont

-----------|
--1--3--5--|
--0--0--0--|
-----------|
--3--5--7--|
-----------|

and I gathered them all on the border

------------------|
--1--3--8---7--5--|
--0--0--0---0--0--|
------------------|
--3--5--10--9--7--|
------------------|x2

and I wait for you all to just settle down
I tell you all about how get cape wear cape stole my sound

------------|
--1--3--8---|
--0--0--0---|
------------|
--3--5--10--|
------------|

and i'm telling you it doesnt matter now

verse

---------------------|
--8---7--5--3--1--3--|
--0---0--0--0--0--0--|
---------------------|
--10--9--7--5--3--5--|
---------------------|x2

I seek to find if i'm more alive than ever before
you left me high but so far from dry in light of this downpour

------------------------|
--8---7--5--3--1--3--5--|
--0---0--0--0--0--0--0--|
------------------------|
--10--9--7--5--3--5--7--|
------------------------|

and these question marks they are not question marks any more
Добавлено: 16.03.2012
Другие материалы по этой песне:
  • Аккорды и текст

Страница создана 16.03.2012
http://primanota.ru/ben-marwood/question-marks-chords.htm
Привет, Гость.
Предлагаем пройти революционный курс по гитаре.
Подарок от PrimaNota.Ru, забирай!