PrimaNota.ru - самый крупный в мире бесплатный архив песенных текстов, аккордов, табулатур и нот


Ben Marwood - Its Harder Now To Break Your Stupid Heart - таба, видео

Регистрация Запомнить меня
Войти через:  Facebook Google Twitter Vk Yandex Mail.ru

Ben Marwood - Its Harder Now To Break Your Stupid Heart - таба, видео

Печатать
Просмотров: 136
Уроки эстрадного вокала в Санкт-Петербурге
-------------------------------------------------------------------------------
        It's Harder Now To Break Your Stupid Heart – Ben Marwood
-------------------------------------------------------------------------------
Tabbed by: Neil Wicker 
Email: wicker101@hotmail.co.uk

Tuning: standard 

these are all the chords, I'm not sure exactly how he picks it
but I do (1 being low E)  1+4, 2, 3, 1, 4, 3  and it sounds okay. 

Intro and verse:

e|-------------------------------|
B|-------------------------------|
G|--9-(10p9)--12-(13p12)--5--7---|
D|--10--------13----------6--8---|   x4
A|--10--------13----------6--8---|
E|--8---------11----------4--6---|

Well I heard you must have missed her
'cause I ran into your sister and she told me that things hadn't gone to plan,
that you were moving out at dawn for the place where you were born
and returning here some shadow of a man.

e|--------------------------------------------------------------|
B|--------------------------------------------------------------|
G|--5--12-(13p12)--7--9---12-(13p12)--5--12-(13p12)--7--5--7----|
D|--6--13----------8--10--13----------6--13----------8----------|
A|--6--13----------8--10--13----------6--13----------8----------| 
E|--4--11----------6--8---11----------4--11----------6--4--6----|

She said it's harder now to take control,
some unnerving mission has brought you near   to home
for nothing you'd need for no-one to hold.
you know it's harder now to break your stupid heart.

e|-------------------------------|
B|-------------------------------|
G|--9-(10p9)--12-(13p12)--5--7---|
D|--10--------13----------6--8---|   x3
A|--10--------13----------6--8---|
E|--8---------11----------4--6---|

Through the ferocity of fights and the tempestuous of nights
you greet me with a face that looks like hell.
and we've nothing left to offer but whatever's in the coffers
and these days they are running low as well.


e|-------------------------------------------------------|
B|-------------------------------------------------------|
G|--5--12-(13p12)--7--9---12-(13p12)--5--12-(13p12)--7---|
D|--6--13----------8--10--13----------6--13----------8---|
A|--6--13----------8--10--13----------6--13----------8---| 
E|--4--11----------6--8---11----------4--11----------6---|

She said it's harder now to take control,
some unnerving mission has brought you near to home
for nothing you'd need for no-one to hold.

e|---------------------------------------------------------------------|
B|---------------------------------------------------------------------|
G|--13--13--5--9-(10p9)--12-(13p12)--5--12—(13p12)--7--5--7--9-(10p9)--|
D|--14--14--6--10--------13----------6--13----------8--6--8--10--------|
A|--14--14--6--10--------13----------6--13----------8--6--8--10--------|
E|--12--12--4--8---------11----------4--11----------6--4--6--8---------|

e|--------------------|
B|--------------------|
G|--12-(13p12)--5--7--|
D|--13----------------|
A|--13----------------|
E|--11----------4--6--|

You say it's harder now to break your heart,
you say that you're different but that won't get you far.
I know who you know, and they're not who you are
you know it's harder now to break your stupid heart,
it's harder now to break your stupid heart. 

e|--------------------------------------------------|
B|--------------------------------------------------|
G|--9-(10p9)--12-(13p12)--7--13--13--9—-12-(13p12)--|
D|--10--------13----------8--14--14--10-13----------|
A|--10--------13----------8--14--14--10-13----------|
E|--8---------11----------6--12--12--8—-11----------|

e|--------------------------------------------------|
B|--------------------------------------------------|
G|--7--13—-13-—5--12-(13p12)--9-(10p9)--5--1--5-----|
D|--8--14--14--6--13----------10--------6--1—-6-----|
A|--8--14--14--6--13----------10--------6--1--6-----|
E|--6--12--12--4--11----------8---------4--1--4-----|

And when the lights come up
and the silence starts
sink another whiskey and it's clawing at your heart,
while lovers hit the pillow and others fall apart
you're so hard, 

e|-------------------------------------------------------|
B|-------------------------------------------------------|
G|--5--12-(13p12)--7--9---12-(13p12)--5--12-(13p12)--7---|
D|--6--13----------8--10--13----------6--13----------8---|
A|--6--13----------8--10--13----------6--13----------8---| 
E|--4--11----------6--8---11----------4--11----------6---|

She said it's harder now to take control,
some unnerving mission has brought you near to home
for nothing you'd need for no-one to hold.

e|---------------------------------------------------------------------|
B|---------------------------------------------------------------------|
G|--13--13--5--9-(10p9)--12-(13p12)--5--12—(13p12)--7--5--7--9-(10p9)--|
D|--14--14--6--10--------13----------6--13----------8--6--8--10--------|
A|--14--14--6--10--------13----------6--13----------8--6--8--10--------|
E|--12--12--4--8---------11----------4--11----------6--4--6--8---------|

e|------------------------|
B|------------------------|
G|--12-(13p12)--5--7—-12--|
D|--13--------------------|
A|--13--------------------|
E|--11----------4--6—-11--|

You say it's harder now to break your heart,
you say that you're different but that won't get you far.
I know who you know, and they're not who you are
you know it's harder now to break your stupid heart,
it's harder now to break your stupid heart. 



please rate!

************************************

| /   slide up
| \   slide down
| h   hammer-on
| p   pull-off
| ~   vibrato
| +   harmonic
| x   Mute note
| b   Bend
| pb  Pre-bend
| br  Bend release
| pbr Pre-bend release
| brb Bend release bend

************************************
Добавлено: 16.04.2012
Другие материалы по этой песне:
  • Аккорды и текст

Страница создана 16.04.2012
http://primanota.ru/ben-marwood/its-harder-now-to-break-your-stupid-heart-chords.htm
Привет, Гость.
Предлагаем пройти революционный курс по гитаре.
Подарок от PrimaNota.Ru, забирай!