PrimaNota.ru - самый крупный в мире бесплатный архив песенных текстов, аккордов, табулатур и нот


Ben Marwood - A Bedpost Mostly Notches - таба

Регистрация Запомнить меня
Войти через:  Facebook Google Twitter Vk Yandex Mail.ru

Ben Marwood - A Bedpost Mostly Notches - таба

Печатать
Просмотров: 82
-------------------------------------------------------------------------------
                             A Bedpost Mostly Notches - Ben Marwood
-------------------------------------------------------------------------------
Tabbed by: Neil Wicker
E-mail: wicker101@hotmail.co.uk

Tuning: Standard

One of my favourite new Ben Marwood songs. It's on the split EP with Quiet Quiet Band 
called "lay low". There's really only 2 parts to this song, and they're not too difficult. 
Have fun :)


Intro and Verse: (I put what words starts the chords so it's easy to tell where you are)

e|-----5-----5-----5--------|--------------------------|
B|-----------------------5--|-----5-----5-----5-----0--|
G|-----5-----5-----5--------|--------------------------|
D|-----------------------5--|-----5-----5-----5-----0--|
A|--5-----5-----5-----5-----|--------------------------|
E|--------------------------|--5-----5-----5-----5-----|
    I've                      don't

    C          G              Dm
e|--------------------------|--------------------------|
B|-----5-----0-----0-----0--|-----6-----6-----6-----6--|
G|--------------------------|--------------------------|
D|-----5-----0-----0-----0--|-----7-----7-----7-----7--|
A|--3-----3-----------------|--5-----5-----5-----5-----|
E|--------------3-----3-----|--------------------------|
   playing                    love
                          G
e|--------------------------|--------------------------|
B|-----5-----5-----5-----0--|-----0-----0-----0-----0--|
G|--------------------------|--------------------------|
D|-----5-----5-----5-----0--|-----0-----0-----0-----0--|
A|--------------------------|--------0-----2-----------|
E|--5-----5-----5-----5-----|--3-----------------3-----|
   all                        Slain

    C          G              Dm
e|--------------------------|--------------------------|
B|-----5-----0-----0-----0--|-----6-----6-----6-----6--|
G|--------------------------|--------------------------|
D|-----5-----0-----0-----0--|-----7-----7-----7-----7--|
A|--3-----3-----------------|--5-----5-----5-----5-----|
E|--------------3-----3-----|--------------------------|
   use                                    let's not go to


Well I've surveyed my choices now I don't know what to do
and it's playing on my mind if love could speak the truth
I'd spend all my time at bonfires being slayn by social vampires
what's the use? Let's not go to...


    C                         G
e|--------------------------|--------------------------|
B|-----5-----5-----5-----0--|-----0-----0-----0-----0--|
G|--------------------------|--------------------------|
D|-----5-----5-----5-----0--|-----0-----0-----0-----0--|
A|--3-----3-----3-----3-----|--------------------------|
E|--------------------------|--3-----3-----3-----3-----|
   bed                      are

   Dm
e|--------------------------|--------------------------|
B|-----6-----6-----6-----6--|-----5-----0-----0-----0--|
G|--------------------------|--------------------------|
D|-----7-----7-----7-----7--|-----5-----0-----0-----0--|
A|--5-----5-----5-----5-----|--------------------------|
E|--------------------------|--5-----5-----3-----3-----|
   notches                    dark
    C                         G
e|--------------------------|--------------------------|
B|-----5-----5-----5-----0--|-----0-----0-----0-----0--|
G|--------------------------|--------------------------|
D|-----5-----5-----5-----0--|-----0-----0-----0-----0--|
A|--3-----3-----3-----3-----|--------------------------|
E|--------------------------|--3-----3-----3-----3-----|
   instead                   friends

  F
e|--------------------------|--------------------------|
B|--------------------------|--------------------------|
G|-----2-----2-----2-----2--|-----2-----2-----2-----2--|
D|--------------------------|--------------------------|
A|-----3-----3-----3-----3--|-----3-----3-----3-----3--|
E|--1-----1-----1-----1-----|--1-----1-----1-----1-----|
   tar                    and         you

but let's not go to bed, and forget who we are
for a bedpost mostly notches, and a fumble in the dark.
Let's go to work instead, let's talk of all our friends
let's smoke until we're tar. and you...

(repeat intro)
know...la da da da....

repeat verse:
so don't you know me, and you can't crave what your body
takes away, and now we've sobered up, drag your tired feet
down crooked streets and you were not your f**king clothes
is what I'll be singing. If you can move in the dark, but you're
still not sure who you are don't

repeat chorus:
go to bed, and forget who we are
for a bedpost mostly notches, and a fumble in the dark.
Let's go to work instead, let's talk of all our friends
let's smoke until we're tar. and you...

repeat verse
that with the smile on your lips you can't go home
so put the smile on your face and go home

repeat chorus:
but let's not go to bed, and forget who we are
for a bedpost mostly notches, and a fumble in the dark.
Let's go to work instead, let's talk of all our friends
let's smoke until we're...


ending:

e|------------------------------|
B|------------------------------|
G|-----2-----2-----4-----4------|
D|------------------------------|
A|-----3-----3-----5-----5--5---|
E|--1-----1-----3-----3---------|
   tar


************************************

| /   slide up
| \   slide down
| h   hammer-on
| p   pull-off
| ~   vibrato
| +   harmonic
| x   Mute note
| b   Bend
| pb  Pre-bend
| br  Bend release
| pbr Pre-bend release
| brb Bend release bend

************************************
Добавлено: 11.08.2013
Другие материалы по этой песне:
  • Аккорды и текст

Страница создана 11.08.2013
http://primanota.ru/ben-marwood/a-bedpost-mostly-notches-chords.htm
Привет, Гость.
Предлагаем пройти революционный курс по гитаре.
Подарок от PrimaNota.Ru, забирай!