PrimaNota.ru - самый крупный в мире бесплатный архив песенных текстов, аккордов, табулатур и нот


Ben Lee - Get Gotten - текст песни, таба, видео

Регистрация Запомнить меня
Войти через:  Facebook Google Twitter Vk Yandex Mail.ru

Ben Lee - Get Gotten - текст песни, таба, видео

Печатать
Просмотров: 219
Уроки эстрадного вокала в Санкт-Петербурге
This is a pretty great song and should be easy for anyone to play.

http://www.youtube.com/watch?v=kMvMKASSq00
I tabbed this song using this video. It's my first tab and I'm pretty sure it's 100% 
Let me know if you find any problems. Thanks for looking.

Here's a link to the song on MySpace if you want to listen:
http://music.myspace.com/index.cfm?fuseaction=music.artistalbums&artistid=1453352&albumid=8109700

Verse
E|----------------------------------------------------------------|
B|------------0-----------0-------------------0-----------0-------|
G|--------0-----------0-------0-----------0-----------0-------0---|
D|----------------------------------------------------------------|
A|----------------------------------------------------------------|
E|0---0-----------3---------------0---0-----------3---------------|

E|----------------------------------------------------------------|
B|------------0-----------0-------------------0-----------0-------|
G|--------0-----------0-------0-----------0-----------0-------0---|
D|----------------------------------------------------------------|
A|----------------------------------------------------------------|
E|0---0-----------3---------------0---0-----------3---------------|

E|----------------------------------------------------------------|
B|------------0-----------0-------------------0-----------0-------|
G|--------0-----------0-------0-----------0-----------0-------0---|
D|----------------------------------------------------------------|
A|0---0-----------0---------------0---0-----------0---------------|
E|----------------------------------------------------------------|

E|----------------------------------------------------------------|
B|------------0-----------0-------------------0-----------0-------|
G|--------0-----------0-------0-----------0-----------0-------0---|
D|----------------------------------------------------------------|
A|----------------------------------------------------------------|
E|0---0-----------3---------------0---0-----------3---------------|

Chorus
E|----------------------------------------------------------------|
B|------------0-----------0-------------------0-----------0-------|
G|--------0-----------0-------0-----------0-----------0-------0---|
D|--------------------------------0---0-----------0---------------|
A|3---3-----------3-----------------------------------------------|
E|----------------------------------------------------------------|

E|----------------------------------------------------------------|
B|------------0-----------0-------------------0-----------0-------|
G|--------0-----------0-------0-----------0-----------0-------0---|
D|----------------------------------------------------------------|
A|----------------------------------------------------------------|
E|0---0-----------0---------------3---3-----------3---------------|

E|----------------------------------------------------------------|
B|------------0-----------0-------------------0-----------0-------|
G|--------0-----------0-------0-----------0-----------0-------0---|
D|--------------------------------0---0-----------0---------------|
A|3---3-----------3-----------------------------------------------|
E|----------------------------------------------------------------|

Lyrics:
Ok baby
What'll it be?
I asked my friends and they all agreed
You're exactly the kinda trouble that I need

I've got songs that give
I've got songs that prove
Songs I use
When I want to seduce
And I want to seduce you
Why won't you let me?

I wanna get you
So get gotten
I won't stop
Till I get to the bottom
I wanna get you
So get gotten

I've got big big dreams
In a small small world
And I'm using God
To pick up girls
And I'm willing
To put it all on the line

I've got words that destroy
Words that build
I use words
And I feel no guilt about it
I've got words that got bump in the night

It's no secret
That I've fallen
I won't stop till I get to the bottom
It's no secret that I've fallen

Cause first you're ripe
Then you're rotten
Dont stop till you get to bottom
First you're ripe
And then rotten

Once I knew
But I've forgotten
I'll find out when I get to the bottom
Once I knew
But I've forgotten

I wanna get you
So get gotten
I wont stop till I get to the bottom
I wanna get you
So get gotten
Добавлено: 11.04.2012
Другие материалы по этой песне:
  • Аккорды и текст

Страница создана 11.04.2012
http://primanota.ru/ben-lee/get-gotten-chords.htm
Привет, Гость.
Предлагаем пройти революционный курс по гитаре.
Подарок от PrimaNota.Ru, забирай!