PrimaNota.ru - самый крупный в мире бесплатный архив песенных текстов, аккордов, табулатур и нот


Ben Kweller - Tylenol - текст песни, таба, видео

Регистрация Запомнить меня
Войти через:  Facebook Google Twitter Vk Yandex Mail.ru

Ben Kweller - Tylenol - текст песни, таба, видео

Печатать
Просмотров: 157
This is my third tab, for the Ben Kweller song Tylenol, off the Tylenol EP.
I'm pretty sure it's 100% right so enjoy.

First part
The guitar isn't extremely audible here, but this sounds good.

e|-----------------------------------------------------|
B|-----------------------------------------------------|
G|----0---0---2---0------------------------------------|
D|---2-2-2-2-2-2-0-0-----------------------------------|
A|--3---3---0------------------------------------------|
E|--------------3--------------------------------------|
"Tylenol, I need some Tylenol"

Repeat a few times,
Then

e|--3--1--3---|--8---------------------------------------|
B|--3--1--5---|--8---------------------------------------|
G|--4--2--5---|--9---------------------------------------|
D|--5--3--5---|--10--------------------------------------|
A|--5--3--3---|--10--------------------------------------|
E|--3--1------|--8---------------------------------------|
              end on^
These are just the chords, the strumming pattern is simple, figure it out yourself.

Second Verse

e|-----------------------------------------------------|
B|-----------------------------------------------------|
G|-----------------------------------------------------|
D|-----------------------------------------------------|
A|-3b---3----------------------------------------------|
E|---------5b--/3b-------------------------------------|
"Rohypnol, I need some Rohypnol.."

Don't bend heavy here, just alter the pitch a little bit.

Second Chorus


e|-----------------------------------------------------|
B|-----------------------------------------------------|
G|-----------------------------------------------------|
D|-----------------------------------------------------|
A|-----------------------------------------------------|
E|-3--1-----8------------------------------------------|

It's pretty much the same as the first chorus, just play the single notes instead of chords.

Third Verse:


e|-----------------------------------------------------|
B|-----------------------------------------------------|
G|-----------------------------------------------------|
D|--55555555-------------------------------------------|
A|--3333333377775555-----------------------------------|
E|----------55553333-----------------------------------|
PM  ................

Third Chorus

Samechords as FIRST CHORUS but louder and distorted.
end on a quick C chord, then some epic feedback and then


e|-----------------------------------------------------|
B|-----------------------------------------------------|
G|-55555555--------------------------------------------|
D|-5555555577775555------------------------------------|
A|-3333333377775555------------------------------------|
E|---------55553333------------------------------------|


e|-----------------------------------------------------|
B|-----------------------------------------------------|
G|-----------------------------------------------------|
D|-55555333310101010-----------------------------------|
A|-55555333310101010-----------------------------------|
E|-33333111188888888-----------------------------------|

end on

e|-8-----------------------------------------------------|
B|-8-----------------------------------------------------|
G|-9-----------------------------------------------------|
D|-10----------------------------------------------------|
A|-10----------------------------------------------------|
E|-8-----------------------------------------------------|
Добавлено: 15.03.2012
Другие материалы по этой песне:
  • Аккорды и текст

Страница создана 15.03.2012
http://primanota.ru/ben-kweller/tylenol-chords.htm
Привет, Гость.
Предлагаем пройти революционный курс по гитаре.
Подарок от PrimaNota.Ru, забирай!