PrimaNota.ru - самый крупный в мире бесплатный архив песенных текстов, аккордов, табулатур и нот


Ben Kweller - Ice Ice Baby - аккорды и текст, видео

Регистрация Запомнить меня
Войти через:  Facebook Google Twitter Vk Yandex Mail.ru

Ben Kweller - Ice Ice Baby - аккорды и текст, видео

Печатать
Просмотров: 134
Ice Ice Baby
Ben Kweller
Ice Ice Baby (BK Baby) - Ben Kweller
 
Tabbed by Erich Lippert This tab is all my own work.
 

Standard Tuning
Intro    Chords: A*   Riff 1:
-0------ ---------   -12^-12^-12^-12^--10------
-0------ ---------   ----------------------12--
-0h1---- -2-2-4-2-   --------------------------
-2------ -2-2-4-2-   --------------------------
-2------ -0-0-0-0-   --------------------------
-0------ ---------   --------------------------
 
Riff 2:
--12-10----------------------------
--------12-12-10-8-10/12-10-8------
-------------------------------9---
-----------------------------------
-----------------------------------
-----------------------------------
 
Verse 1:
E
stop, colaborate and listen,
E
BKs back with my brand new invention.
E
something grabs ahold of me tightly,
 
flow like a harpoon daily and nightly.
 
Chorus:
A*
would it ever stop,yo I dont know,
A*
turn on the light and I'll glow,
 
to the extreme I rock the mic like a vandal,
Riff 1
light up the stage and watch me jump like a candle,
B
damn, well I'm kickin that boon,
B                           B  Bb    A
I'm poisonus like a poisonus mushroom.
 
if there is a problem I will solve it.
Riff 2
check out the hook while my dj revolves it.
E
Ice,Ice,baby too cold to hold.
E
Ice,Ice,baby too cold to hold.
 
Verse 2:
E
Rollin in my gray volvo,
E
with the ragtop down so my hair can blow,
E
girlies on standby waitin just to say hi,
 
did I stop?, No I just rode bye
 
Outro:
A               B
Dr Dre aint got nothin on me,
C               D         E 
or the snoop d,o,double g

     
Добавлено: 11.08.2013
Другие материалы по этой песне:
  • Аккорды и текст

Страница создана 11.08.2013
http://primanota.ru/ben-kweller/ice-ice-baby-chords.htm
Привет, Гость.
Предлагаем пройти революционный курс по гитаре.
Подарок от PrimaNota.Ru, забирай!