PrimaNota.ru - самый крупный в мире бесплатный архив песенных текстов, аккордов, табулатур и нот


Ben Kenney - Worlds Collide - таба, видео

Регистрация Запомнить меня
Войти через:  Facebook Google Twitter Vk Yandex Mail.ru

Ben Kenney - Worlds Collide - таба, видео

Печатать
Просмотров: 118
Ben Kenney - Worlds Collide

Intro/Verse

e|-----------------------------------------------------------|
B|-----------------------------------------------------------|
G|--6-xx-6-xx-6--6-xx-6-xx-6/13-xx-13-xx-13--13-xx-13-xx-13--|
D|--4-xx-4-xx-4--4-xx-4-xx-4/11-xx-11-xx-11--10-xx-10-xx-10--|
A|-----------------------------------------------------------|
E|-----------------------------------------------------------|


Chorus1

    F# A# C# F#
e|-----------------------------------------------|
B|-----------------------666-------666-----------|
G|--------6--10----------------------------------|
D|--4--8--6--10-----7-5-7-----7-5-7-----7-5-7-5--|
A|--4--8--4--8-----------------------------------|
E|--2--6-----------------------------------------|


Chorus2

    F# A# C# F#   D# C# F#
e|-------------------------|
B|-------------------------|
G|--------6--10---8--6-----|
D|--4--8--6--10---8--6--4--|
A|--4--8--4--8----6--4--4--|
E|--2--6----------------2--|


Chorus3

    F# A# C# F#   D# C# D# C# D# C# F#
e|-------------------------------------|
B|-------------------------------------|
G|--------6--10---8--6--8--6--6--6-----|
D|--4--8--6--10---8--6--8--6--6--6--4--|
A|--4--8--4--8----6--4--6--4--8--4--4--|
E|--2--6----------------------------2--|


Instrumental Bridge

    F#                            C#             A#

e|----9-----9-----9--9-----9-----9--9-----9-----9-8---8---8--|
B|-----------------------------------------------------------|
G|--11-11-11-11-11-11-11-11-11-11-10-10-10-10-10-8-8-8-8-8---|
D|-----------------------------------------------------------|
A|-----------------------------------------------------------|
E|-----------------------------------------------------------|


Play Intro

No giving up right?
Just figure out what what it takes
I should be learning the rules instead I'm burning the tapes
I know it ain't right
I'm bending it 'till it breaks
If I had listened to you we wouldn't be in this place
I may be uptight but you ain't no piece of cake
I'm probably acting a fool but you won't relax your face
No giving up right?
I hope I got what it takes
I'm through with trying to be cool and letting up off the brakes
Now I don't have anywhere else to go
Baby girl you know you could get it
What's with the attitude
And I don't care if you wanted to know
Cause the atmosphere we creating be devastating the vibe


Chorus1
Now I can't even lie


Chorus2                                   Instumental bridge (x2)
I love it when our worlds collide in the end


Intro
I'm like all black and half white
Without a moment to waste
I want to know what to do but I don't know how to wait
No more than half right
As long as it's never fake
Even when telling the truth became a fatal mistake
Cause I don't have anywhere else to go
Baby girl you know you could get it
What's with the attitude (quit it)
And I don't care if you wanted to know
Cause the atmosphere we creating be devestaing the vibe


Chorus1
Now I can't even lie
I love it when our...you know
Now I can't even lie


Chorus3
I love it when our worlds collide
When we almost die
But we still survive
In the end. 


Instrumental bridge (x4)


Chorus1
Now I can't even lie
I love it when our...you know
Now I can't even lie


Chorus3
I love it when our worlds collide
When we almost die
But we still survive
In the end.
-----------------------------------------------------------------------------

By Alan K'
This is for you Adriana, you are my inspiration!


Questions, suggestions and comments: alan_ketzel@hotmail.com
Добавлено: 31.05.2012
Другие материалы по этой песне:
  • Аккорды и текст

Страница создана 31.05.2012
http://primanota.ru/ben-kenney/worlds-collide-chords.htm
Привет, Гость.
Предлагаем пройти революционный курс по гитаре.
Подарок от PrimaNota.Ru, забирай!