PrimaNota.ru - самый крупный в мире бесплатный архив песенных текстов, аккордов, табулатур и нот


Ben Kenney - Not Today - таба, бас-таба, видео

Регистрация Запомнить меня
Войти через:  Facebook Google Twitter Vk Yandex Mail.ru

Ben Kenney - Not Today - таба, бас-таба, видео

Печатать
Просмотров: 180
Not Today by Ben Kenney
--------------------------

-INTRO-
G5      B5      G5      E5      G5      B5      A5
P.M.    P.M.    P.M.    P.M.    P.M.    P.M.    P.M.
---|    ---|    ---|    ---|    ---|    ---|    --------------|
33333-3---------33333-3-00000-0-33333-3---------55555---5-5---5-|
55555-5-22222-2-55555-5-22222-2-55555-5-22222-2-77777---7-7---7-|
55555-5-44444-4-55555-5-22222-2-55555-5-44444-4-77777---7-7---7-|x2
--------44444-4-------------------------44444-4-----------------|
----------------------------------------------------------------|
----------------------------------------------------------------|

-MAIN-RIFF-
                                                Em
                                         H
                                        / \     .
----------------------------------3-3-0-3-5-0---0-----0---------|
2-4-5---------------5-5-5-2-2-2-2---------------2-----2---------|
------4-------4-4-4-----------------------------2-----2---------|x2
--------2-2-2-----------------------------------0-----0---------|
----------------------------------------------------------------|
----------------------------------------------------------------|

-VERSE-
                                                Em
P.M.
------------------------------------------------------------------|
----------------------------------3-3-0-3-5-0---0-----0-----------|
2-4-5---------------5-5-5-2-2-2-2---------------2-----2-----------|
------4-------4-4-4-----------------------------2-----2-----------|x4
--------2-2-2-----------------------------------0-----0-----------|
------------------------------------------------------------------|
------------------------------------------------------------------|

-PRE-CHORUS-
G       B       G       Em      G       B


3-3-------------3-3-----0-0-----3-3-------------X-X-X---X---X-X-|
5-5-----2-2-----5-5-----2-2-----5-5-----2-2-----X-X-X---X---X-X-|
5-5-----4-4-----5-5-----2-2-----5-5-----4-4-----X-X-X---X---X-X-|x3
4-4-----4-4-----4-4-----0-0-----4-4-----4-4-----X-X-X---X---X-X-|
--------4-4-----------------------------4-4-----X-X-X---X---X-X-|
------------------------------------------------X-X-X---X---X-X-|

G       B       G       E       G       B       A


3-3-------------3-3-----0-0-----3-3-------------5---------------|
5-5-----2-2-----5-5-----2-2-----5-5-----2-2-----7---------------|
5-5-----4-4-----5-5-----2-2-----5-5-----4-4-----7---------------|
4-4-----4-4-----4-4-----0-0-----4-4-----4-4-----6---------------|
--------4-4-----------------------------4-4-----5---------------|
------------------------------------------------5---------------|

-OUTRO-
G               B               A


3-----3-----3-------------------5-----5-----5---5-----5-----5----|
5-----5-----5---2-----2-----2---7-----7-----7---7-----7-----7----|
5-----5-----5---4-----4-----4---7-----7-----7---7-----7-----7----|x4
4-----4-----4---4-----4-----4---6-----6-----6---6-----6-----6----|
3-----3-----3---4-----4-----4---5-----5-----5---5-----5-----5----|
3-----3-----3---2-----2-----2---5-----5-----5---5-----5-----5----|

-ARRANGEMENT-

INTRO
MAIN RIFF
VERSE
PRE-CHORUS
VERSE
PRE-CHORUS
SOLO
OUTRO


-I didn't include the solo simply because it is too hard to tab, but you can figure it 
for yourself or just improvise, I believe it is in E Dorian. Enjoy!
Добавлено: 05.06.2012
Другие материалы по этой песне:

Страница создана 13.05.2012
http://primanota.ru/ben-kenney/not-today-chords.htm
Привет, Гость.
Предлагаем пройти революционный курс по гитаре.
Подарок от PrimaNota.Ru, забирай!