PrimaNota.ru - самый крупный в мире бесплатный архив песенных текстов, аккордов, табулатур и нот


Ben Kenney - New Amsterdam - бас-таба, видео

Регистрация Запомнить меня
Войти через:  Facebook Google Twitter Vk Yandex Mail.ru

Ben Kenney - New Amsterdam - бас-таба, видео

Печатать
Просмотров: 78
|--------------------------------------------------------------|
                New Amsterdam - Ben Kenney
|--------------------------------------------------------------|

Bass Tab


Intro:

G:||---------------------------------------------------------|
D:||---------------------------------------------------------|
A:||---------------------------------------------------------|
E:||-------------------------------------------------9\------|

G:||---------------------------------------------------------|
D:||-------5-------5---6---8----6-6--6--------6-6--6---------|
A:||-4-4-4---8---6---6---6----8--------8-8--8--------8-6-8-6-|
E:||---------------------------------------------------------|

G:||----------------------------5-5--5--------5-5--5---------|
D:||-------5-------5---6---8--6--------6-6--6--------6-6-6-6-|
A:||-4-4-4---8---6---6---6-----------------------------------|
E:||---------------------------------------------------------|


Verse:

G:||---------------------------------------------------------|
D:||-------5-------5---6---8----6-6--6--------6-6--6---------|
A:||-4-4-4---8---6---6---6----8--------8-8--8--------8-6-8-6-|
E:||---------------------------------------------------------|


G:||----------------------------5-5--5--------5-5--5---------|
D:||-------5-------5---6---8--6--------6-6--6--------6-6-6-6-|
A:||-4-4-4---8---6---6---6-----------------------------------|
E:||---------------------------------------------------------|


G:||---------------------------------------------------------|
D:||-------5-------5---6---8----6-6--6--------6-6--6---------|
A:||-4-4-4---8---6---6---6----8--------8-8--8--------8-6-8-6-|
E:||---------------------------------------------------------|


G:||----------------------------5-5--5--------5-5--5---------|
D:||-------5-------5---6---8--6--------6-6--6--------6-6-6-6-|
A:||-4-4-4---8---6---6---6-----------------------------------|
E:||---------------------------------------------------------|


Chorus 1:

G:||---------------------------------------------------------|
D:||---------------------------------------------------------|
A:||-7---7--7---7----------------6---6--6---6--6---6--6---6--|
E:||---------------7---7--7---7------------------------------|

G:||------------------------------------------8-6-----6------|
D:||----------------------------------------------9-8---9-8-6|
A:||-7---7--7---7----------------6---6--6---6----------------|
E:||---------------7---7--7---7------------------------------|

G:||---------------------------------------------------------|
D:||---------------------------------------------------------|
A:||-7---7--7---7----------------6---6--6---6----------------|
E:||---------------7---7--7---7----------------7--7--6--6--5-|

G:||---------------------------------------------------------|
D:||------------------------------------------6-4-----4------|
A:||----------------------------------------------7-6--7-6-x-|
E:||--5--5---5--0---0--0---0--4-4-4-4-4-4-4-4----------------|



Pre Verse:

G:||---------------------------------------------------------|
D:||-------5-------5---6---8----6-6--6--------6-6--6---------|
A:||-4-4-4---8---6---6---6----8--------8-8--8--------8-6-8-6-|
E:||---------------------------------------------------------|


G:||----------------------------5-5--5--------5-5--5---------|
D:||-------5-------5---6---8--6--------6-6--6--------6-6-6-6-|
A:||-4-4-4---8---6---6---6-----------------------------------|
E:||---------------------------------------------------------|


Verse:

G:||---------------------------------------------------------|
D:||-------5-------5---6---8----6-6--6--------6-6--6---------|
A:||-4-4-4---8---6---6---6----8--------8-8--8--------8-6-8-6-|
E:||---------------------------------------------------------|


G:||----------------------------5-5--5--------5-5--5---------|
D:||-------5-------5---6---8--6--------6-6--6--------6-6-6-6-|
A:||-4-4-4---8---6---6---6-----------------------------------|
E:||---------------------------------------------------------|

G:||---------------------------------------------------------|
D:||-------5-------5---6---8----6-6--6--------6-6--6---------|
A:||-4-4-4---8---6---6---6----8--------8-8--8--------8-6-8-6-|
E:||---------------------------------------------------------|


G:||----------------------------5-5--5--------5-5--5---------|
D:||-------5-------5---6---8--6--------6-6--6--------6-6-6-6-|
A:||-4-4-4---8---6---6---6-----------------------------------|
E:||---------------------------------------------------------|


Chorus 2:

G:||---------------------------------------------------------|
D:||---------------------------------------------------------|
A:||-7---7--7---7----------------6---6--6---6--6---6--6---6--|
E:||---------------7---7--7---7------------------------------|

G:||------------------------------------------8-6-----6------|
D:||----------------------------------------------9-8---9-8-6|
A:||-7---7--7---7----------------6---6--6---6----------------|
E:||---------------7---7--7---7------------------------------|

G:||---------------------------------------------------------|
D:||---------------------------------------------------------|
A:||-7---7--7---7----------------6---6--6---6----------------|
E:||---------------7---7--7---7----------------7--7--6--6--5-|

G:||---------------------------------------------------------|
D:||---------------------------------------------------------|
A:||------------------------------------------------------6--|
E:||--5--5---5--0---0--0---0--4-4-4-4-4-4-4-4-4-4-4-4--4-----|


Bridge:

G:||-----------------------------------------------------------------|
D:||-----------------------------------------------------------------|
A:||---------------------------------4-4-4-4-4-4-4-4-4-4-4-4-4-4-4-4-|
E:||-5-5-5-5-5-5-5-5-5-5-5-5-5-5-5-5---------------------------------|

G:||-----------------------------------------------------------------|
D:||-----------------------------------------------------------------|
A:||-----------------------------------------------------------------|
E:||-0-0-0-0-0-0-0-0-0-0-0-0-0-0-0-0-5-5-5-5-5-5-5-5-5-5-5-5-5-5-5-5-|

G:||-----------------------------------------------------------------|
D:||-----------------------------------------------------------------|
A:||-4-4-4-4-4-4-4-4-4-4-4-4-4-4-4-4---------------------------------|
E:||---------------------------------0-0-0-0-0-0-0-0-0-0-0-0-0-0-0-0-|

G:||-----------------------------------------------------------------|
D:||-----------------------------------------------------------------|
A:||---------------------------------4-4-4-4-4-4-4-4-4-4-4-4-4-4-4-4-|
E:||-5-5-5-5-5-5-5-5-5-5-5-5-5-5-5-5---------------------------------|

G:||---------------------------------|
D:||---------------------------------|
A:||-7-7-7-7-7-7-7-7-7-7-7-7-7-7-7-7-|
E:||---------------------------------|


Pre Verse:

G:||---------------------------------------------------------|
D:||-------5-------5---6---8----6-6--6--------6-6--6---------|
A:||-4-4-4---8---6---6---6----8--------8-8--8--------8-6-8-6-|
E:||---------------------------------------------------------|

G:||----------------------------5-5--5--------5-5--5---------|
D:||-------5-------5---6---8--6--------6-6--6--------6-6-6-6-|
A:||-4-4-4---8---6---6---6-----------------------------------|
E:||---------------------------------------------------------|


Alternate Verse:

G:||-----------------------------------------------------------------|
D:||-----------------------------------------------------------------|
A:||-4-4-4-4-4-4-4-4-6-6-6-6-6-6-6-6---------------------------------|
E:||---------------------------------8-8-8-8-8-8-8-8-8-8-8-8-8-8-8-8-|

G:||---------------------------------------------------------------------------------|
D:||---------------------------------------------------------------------------------|
A:||-4-4-4-4-4-4-4-4-6-6-6-6-6-6-6-6/13-13-13-13-13-13-13-13-13-13-13-13-13-13-13-13-|
E:||---------------------------------------------------------------------------------|


Chorus 1:

G:||---------------------------------------------------------|
D:||---------------------------------------------------------|
A:||-7---7--7---7----------------6---6--6---6--6---6--6---6--|
E:||---------------7---7--7---7------------------------------|

G:||------------------------------------------8-6-----6------|
D:||----------------------------------------------9-8---9-8-6|
A:||-7---7--7---7----------------6---6--6---6----------------|
E:||---------------7---7--7---7------------------------------|

G:||---------------------------------------------------------|
D:||---------------------------------------------------------|
A:||-7---7--7---7----------------6---6--6---6----------------|
E:||---------------7---7--7---7----------------7--7--6--6--5-|

G:||---------------------------------------------------------|
D:||------------------------------------------6-4-----4------|
A:||----------------------------------------------7-6--7-6-x-|
E:||--5--5---5--0---0--0---0--4-4-4-4-4-4-4-4----------------|


Outro:

G:||---------------------------------------------------------|
D:||-------5-------5---6---8----8-\--------------------------|
A:||-4-4-4---8---6---6---6----8------------------------------|
E:||---------------------------------------------------------|
Добавлено: 09.10.2013
Другие материалы по этой песне:
  • Аккорды и текст

Страница создана 09.10.2013
http://primanota.ru/ben-kenney/new-amsterdam-chords.htm
Привет, Гость.
Предлагаем пройти революционный курс по гитаре.
Подарок от PrimaNota.Ru, забирай!