PrimaNota.ru - самый крупный в мире бесплатный архив песенных текстов, аккордов, табулатур и нот


Ben Kenney - How Would You Know - таба, видео

Регистрация Запомнить меня
Войти через:  Facebook Google Twitter Vk Yandex Mail.ru

Ben Kenney - How Would You Know - таба, видео

Печатать
Просмотров: 160
Ben Kenney - How Would You Know

Intro/Verse

E||--------------------------------------------------------------------------|
B||--------------------------------------------------------------------------|
G||--4-4-4--4-4-4--4-4--4-4-4--4-4-4--4-4--4-4-4--4-------------6-6-6-6\4-4--|
D||--6-6-6--6-6-6--4-4--4-4-4--4-4-4--4-4--4-4-4--4-------------6-6-6-6\4-4--|
A||---------------------6-6-6--6-6-6--4-4--2-2-2--2-2-2-4/6-0----------------|
E||--------------------------------------------------------------------------|

PM: - - - - - - - - - - - -

Pre-Chorus

E||---------------------------|
B||---------------------------|
G||-----6-6-6-6\4-----4--4-4--|
D||-----6-6-6-6\4-----4--4-4--|
A||--0------------------------|
E||----------------0----------|

Chorus

E||---------------------------------|
B||------4---------4---------4------|
G||--------4---------4---------4----| x3
D||----------4---------4---------4--|
A||---------------------------------|
E||--0---------2---------4----------|
Добавлено: 06.04.2012
Другие материалы по этой песне:
  • Аккорды и текст

Страница создана 06.04.2012
http://primanota.ru/ben-kenney/how-would-you-know-chords.htm
Привет, Гость.
Предлагаем пройти революционный курс по гитаре.
Подарок от PrimaNota.Ru, забирай!