PrimaNota.ru - самый крупный в мире бесплатный архив песенных текстов, аккордов, табулатур и нот


Ben Kenney - Girl - таба, видео

Регистрация Запомнить меня
Войти через:  Facebook Google Twitter Vk Yandex Mail.ru

Ben Kenney - Girl - таба, видео

Печатать
Просмотров: 187
---------------------------------------------------------------------------
                             GIRL - Ben Kenney
---------------------------------------------------------------------------


Tabbed by: Niscimble
Email: peteypablo2131@yahoo.com

Hey guys.  This is my first submitted Tab so be gentle!  This song is 
pretty much the same four chords over and over again with slightly 
different effects on them.

Tuning: Standard

Here are the Chords -

      A
e|----x-----|
B|----10----|
G|----9-----|
D|----7-----|
A|----7-----|
E|----x-----|
      
      E  
e|----x-----|
B|----9-----|
G|----x-----|
D|----6-----|
A|----7-----|
E|----x-----|

      D
e|----x-----|
B|----10----|
G|----7-----|
D|----7-----|
A|----9-----|
E|----x-----|

      E
e|----x-----|
B|----9-----|
G|----9-----|
D|----9-----|
A|---11-----|
E|----x-----|

And here is the strumming pattern -

e|---x---x---x---x---x---x---x--x---x---x---x---x---x---x---x--x-----------|
B|---10--10--10--10--10--10--x--x---9---9---9---9---9---9---x--x-----------|
G|---9---9---9---9---9---9---x--x---x---x---x---x---x---x---x--x-----------|
D|---7---7---7---7---7---7---x--x---6---6---6---6---6---6---x--x-----------|
A|---7---7---7---7---7---7---x--x---7---7---7---7---7---7---x--x-----------|
E|---x---x---x---x---x---x---x--x---x---x---x---x---x---x---x--x-----------|

e|---x---x---x---x---x---x---x--x---x---x---x---x---x---x---x--x-----------|
B|---10--10--10--10--10--10--x--x---9---9---9---9---9---9---x--x-----------|
G|---7---7---7---7---7---7---x--x---9---9---9---9---9---9---x--x-----------|
D|---7---7---7---7---7---7---x--x---9---9---9---9---9---9---x--x-----------|
A|---9---9---9---9---9---9---x--x--11--11--11--11--11--11---x--x-----------|
E|---x---x---x---x---x---x---x--x---x---x---x---x---x---x---x--x-----------|



| /  slide up
| \  slide down
| h  hammer-on
| p  pull-off
| ~  vibrato
| +  harmonic
| x  Mute note
============================================================================


http://www.benkenney.com/
Добавлено: 14.06.2012
Другие материалы по этой песне:
  • Аккорды и текст

Страница создана 14.06.2012
http://primanota.ru/ben-kenney/girl-chords.htm
Привет, Гость.
Предлагаем пройти революционный курс по гитаре.
Подарок от PrimaNota.Ru, забирай!