PrimaNota.ru - самый крупный в мире бесплатный архив песенных текстов, аккордов, табулатур и нот


Ben Kenney - Fluorescent Yellow - таба, бас-таба, видео

Регистрация Запомнить меня
Войти через:  Facebook Google Twitter Vk Yandex Mail.ru

Ben Kenney - Fluorescent Yellow - таба, бас-таба, видео

Печатать
Просмотров: 163
-----------------------------------------------------------------------------
                             Fluorescent Yellow – Ben Kenney
-----------------------------------------------------------------------------

Tabbed by: Niscimble
Email: peteypablo2131@yahoo.com

This is one of my favorite songs by Ben Kenney.  
It is on his album Distance and Comfort.

Tuning: Standard

Intro/Fill
e|---------------------------------------------------------------|
B|---5-------5--------6------6-----5--------10------6------6-----|
G|-----5-------5--------5------5-----5--------10------5------5---|
D|-------7-------7--------5------5-----5--------10------5------5-|
A|-0-------0------------------------------8----------------------|
E|------------------6-------6------0---------------6------6------|


Verse
e|------------------|
B|--5--6--5--10--6--|
G|--5--7--5--10--7--| 
D|--5--7--5--10--7--|
A|------------------|
E|------------------|

Chorus
e|-----x-----x-----6--------|
B|-----8-----6-----x-----6--|
G|-----9-----7-----x-----7--|
D|-----x-----x-----5-----x--|
A|-----7-----5--6--6-----5--|
E|--8--8--6--6--------6--6--|

Solo
e|----------------------7-8-10---------------------------------|
B|-------10----10-----8--------6h8-6h8-6-----------------------|
G|---10----10----10----------------------7-5--7-5--------------|
D|-----10----10----10-----------------------------7b8-8b7-5----|
A|-8--------------------------------------------------------8--|
E|-------------------------------------------------------------|

e|----------------7-8-10—13h15-13h15-13---------13-16b17-15-13---|
B|-------10-----8----------------------15-13--15--------------15-|
G|---10----10----------------------------------------------------|
D|-----10----10--------------------------------------------------|
A|-8-------------------------------------------------------------|
E|---------------------------------------------------------------|

e|-------------------------------------------------------|
B|-13--13--12b13-13b12---------11--11—10b11-11b1---------|
G|---14--14-----------14-12-14---12--12-----------12-10--|
D|-------------------------------------------------------|
A|-------------------------------------------------------|
E|-------------------------------------------------------|


e|--------------------------------------------------------------|
B|-------------12-------12--12----------------------------------|
G|-12---9-10-12----9-10---12--12-10-10-12-10h12-10--------------|
D|----9-----------9-------------------------------12-10-12-10---|
A|-----------------------------------------------------------13-|
E|--------------------------------------------------------------|

e|---------------------------------------|
B|---------------------------------------|
G|---------------------------------------|
D|---------------------------------------|
A|-12h13-12h13-12-10-------10h12-10h12\--|
E|-------------------13-10---------------|

Outro
e|------------------|
B|--5--6--5--10--6--|
G|--x--x--x--x---x--| 
D|--5--7--5--10--7--|
A|------------------|
E|------------------|


Intro x3
Verse x4
Chorus x2
Fill x2
Verse x4
Chorus x4
Solo
Outro until finish






| /  slide up
| \  slide down
| h  hammer-on
| p  pull-off
| ~  vibrato
| +  harmonic
| x  Mute note
=============================================================================

Добавлено: 04.03.2012
Другие материалы по этой песне:

Страница создана 04.03.2012
http://primanota.ru/ben-kenney/fluorescent-yellow-chords.htm
Привет, Гость.
Предлагаем пройти революционный курс по гитаре.
Подарок от PrimaNota.Ru, забирай!