PrimaNota.ru - самый крупный в мире бесплатный архив песенных текстов, аккордов, табулатур и нот


Ben Kenney - Eulogy - таба, бас-таба, видео

Регистрация Запомнить меня
Войти через:  Facebook Google Twitter Vk Yandex Mail.ru

Ben Kenney - Eulogy - таба, бас-таба, видео

Печатать
Просмотров: 204
-------------------------------------------------------------------------------
                             EULOGY - Ben Kenney
-------------------------------------------------------------------------------
Tabbed by:      Nick Morris
Email:          wishbonenick@gmail.com

Tuning: Standard

VERSE

e|----------------------------------------------------------------------|
B|----------------------------------------------------------------------|
G|----------------------------------------------------------------------|x8
D|--5--5----------------------------------------4--4-----4---7--7-------|
A|--5--5----------------------------------------2--2--0--2---5--5-------|
E|--3--3--3-3-3-3-3---3-3-3-3-3---3-3-3-3-3--3---------------------7--5-|


CHORUS

e|---------------------------------------------------------------|
B|---------------------------------------------------------------|
G|----------------------------------4-4--4--4-4--4---------------|x2 
D|--5-5--5--5-5--5--2-2--2--2-2--2--4-4--4--4-4--4--4-4--4--4--4-|
A|--5-5--5--5-5--5--2-2--2--2-2--2--2-2--2--2-2--2--5-5--5--5--5-|
E|--3-3--3--3-3--3--0-0--0--0-0--0------------------2-2--2--2--2-|

e|---------------------------------------------------------------|
B|---------------------------------------------------------------|
G|----------------------------------4-4--4--4-4--4---------------|x2
D|--5-5--5--5-5--5--7-7--7--7-7--7--4-4--4--4-4--4--4-4--4--4--4-|
A|--5-5--5--5-5--5--7-7--7--7-7--7--2-2--2--2-2--2--5-5--5--5--5-|
E|--3-3--3--3-3--3--5-5--5--5-5--5------------------2-2--2--2--2-|



VERSE
CHORUS

MIDPART

e|--------0--0--------0--0--------0--0------|
B|--------0--0--------0--0--------0--0------|
G|--5-5-5-5--5--2-2-2-2--2--------0--0------|
D|--5-5-5-5--5--2-2-2-2--2--2-2-2-2--2------|
A|--3-3-3-3--3--0-0-0-0--0--2-2-2-2--2------|
E|--------------------------0-0-0-0--0------|

SOLO

e|--------------------------------------------------------|
B|-------------------------------------------------/10----|
G|-------------------7------7--------7/9-7-9~--(7)--------|
D|--7-9~--5-7~-------9----5---/9\--5----------------------|
A|-------------5-7~--7------------------------------------|
E|--------------------------------------------------------|

e|------------------------------------------------------------------------------------|
B|--7------------5h7-------7h8p7------------------------------------------------------|
G|----7--------------7/9---------9-7---7-9--------------------------------------------|
D|------9--7-9-7---------------------9-----7h9-7--9-----7--------------9--11--12--14--|
A|--------------------------------------------------10----9-------5-7--7--9---10--12--|
E|-----------------------------------------------------------10-7---------------------|

e|-----------------------12~----------------------------------------------------------------|
B|--15-15-12-------15-17-15b17--12h13-12h13-12h13-12--------------12-13-12h13p12------------|
G|-----------14-12-----------------------------------14-12--12-14----------------14-12~-----|
D|------------------------------------------------------------------------------------------|
A|------------------------------------------------------------------------------------------|
E|------------------------------------------------------------------------------------------|

e|-----------------------15-----------------------15-19-15h17-----------17-17b--|
B|-15-13-12-------12--------15-12----------15-17---------------17p15------------|
G|----------12-14----12-----------12-14------------------------------16---------|
D|------------------------------------------------------------------------------|
A|------------------------------------------------------------------------------|
E|------------------------------------------------------------------------------|

e|---17-14-------17-15~--|
B|---------15------------|
G|------------16---------|
D|-----------------------|
A|-----------------------|
E|-----------------------|

VERSE
CHORUS
                                           1st Time
e|--------0-----------0-----------0----|-|-------0-----|-|
B|--------0-----------0-----------0----|-|-------0-----|-|
G|--------0-----------0-----4-4-4-4--4-|-|-7-7-7-7--7--|-|
D|--5-5-5-5--5--7-7-7-7--7--4-4-4-4--4-|-|-7-7-7-7--7--|-|
A|--5-5-5-5--5--7-7-7-7--7--2-2-2-2--2-|-|-5-5-5-5--5--|-|
E|--3-3-3-3--3--5-5-5-5--5-------------|-|-------------|-|

   2nd Time
e|----------------------|
B|----------------------|
G|----------------------|
D|--4-4-----------------|
A|------7-5-4-4-7-4-5---|
E|--------------------3-|


| /  slide up
| \  slide down
| h  hammer-on
| p  pull-off
| ~  vibrato
| +  harmonic
| x  Mute note
===============================================================================
Добавлено: 22.04.2012
Другие материалы по этой песне:

Страница создана 21.04.2012
http://primanota.ru/ben-kenney/eulogy-chords.htm
Привет, Гость.
Предлагаем пройти революционный курс по гитаре.
Подарок от PrimaNota.Ru, забирай!