PrimaNota.ru - самый крупный в мире бесплатный архив песенных текстов, аккордов, табулатур и нот


Ben Kenney - 423 - текст песни, таба, видео

Регистрация Запомнить меня
Войти через:  Facebook Google Twitter Vk Yandex Mail.ru

Ben Kenney - 423 - текст песни, таба, видео

Печатать
Просмотров: 127
----------------------------------------------------------------------------
                             4.2.3 - Ben Kenney
----------------------------------------------------------------------------
Tabbed by: Niscimble
Email: peteypablo2131@yahoo.com

Tuning: Standard


Section 1

e|-------------------------------------------------------------------------|
B|-------------------------------------------------------------------------|
G|-------------------------------------------------------------------------|
D|-7--7--7--7--7--7--7--7--\--3--3--3--3--3--3--3--3--/--7--7--7--7--7--7--|
A|-7--7--7--7--7--7--7--7--\--3--3--3--3--3--3--3--3--/--7--7--7--7--7--7--|
E|-5--5--5--5--5--5--5--5--\--1--1--1--1--1--1--1--1--/--5--5--5--5--5--5--|

e|-------------------------------------------------------------------------|
B|-------------------------------------------------------------------------|
G|----------------------------------7--7--7--7--7--7--7--7-----------------|
D|-7--7--\--3--3--3--3--3--3--3--3--7--7--7--7--7--7--7--7--3--3--3--3--3--|
A|-7--7--\--3--3--3--3--3--3--3--3--5--5--5--5--5--5--5--5--3--3--3--3--3--|
E|-5--5--\--1--1--1--1--1--1--1--1--5--5--5--5--5--5--5--5--1--1--1--1--1--|

e|-------------------------------------------------------------------------|
B|-------------------------------------------------------------------------|
G|----------7--7--7--7--7--7--7--7-----------------------------------------|
D|-3--3--3--7--7--7--7--7--7--7--7--3--3--3--3--3--5--5--5--7--7--7--7--7--|
A|-3--3--3--5--5--5--5--5--5--5--5--3--3--3--3--3--5--5--5--7--7--7--7--7--|
E|-1--1--1--5--5--5--5--5--5--5--5--1--1--1--1--1--3--3--3--5--5--5--5--5--|

e|-------------------------------------------------------------------------|
B|-------------------------------------------------------------------------|
G|-------------------------------------------------------------------------|
D|-7--7--7--\--3--3--3--3--3--3--3--3--/--7--7--7--7--7--7--7--7--\--3--3--|
A|-7--7--7--\--3--3--3--3--3--3--3--3--/--7--7--7--7--7--7--7--7--\--3--3--|
E|-5--5--5--\--1--1--1--1--1--1--1--1--/--5--5--5--5--5--5--5--5--\--1--1--|

e|-------------------------------------------------------------------------|
B|-------------------------------------------------------------------------|
G|-------------------7--7--7--7--7--7--7--7--------------------------7--7--|
D|-3--3--3--3--3--3--7--7--7--7--7--7--7--7--3--3--3--3--3--3--3--3--7--7--|
A|-3--3--3--3--3--3--5--5--5--5--5--5--5--5--3--3--3--3--3--3--3--3--5--5--|
E|-1--1--1--1--1--1--5--5--5--5--5--5--5--5--1--1--1--1--1--1--1--1--5--5--|

e|-------------------------------------------------------------------------|
B|-------------------------------------------------------------------------|
G|-7--7--7--7--7--7--------------------------------------------------------|
D|-7--7--7--7--7--7--3--3--3--3--3--5--5--5--4--4--4--4--4--4--4--4--6--6--|
A|-5--5--5--5--5--5--3--3--3--3--3--5--5--5--4--4--4--4--4--4--4--4--6--6--|
E|-5--5--5--5--5--5--1--1--1--1--1--3--3--3--2--2--2--2--2--2--2--2--4--4--|

e|-------------------------------------------------------------------------|
B|-------------------------------------------------------------------------|
G|-------------------------------------------7--7--7--7--7--6--7-----------|
D|-6--6--6--6--6--6--7--7--7--7--7--7--7--7--7--7--7--7--7--6--7--7--4--4--|
A|-6--6--6--6--6--6--7--7--7--7--7--7--7--7--5--5--5--5--5--4--5--7--4--4--|
E|-4--4--4--4--4--4--5--5--5--5--5--5--5--5--5--5--5--5--5--4--5--5--2--2--|

e|-------------------------------------------------------------------------|
B|-------------------------------------------------------------------------|
G|-------------------------------------------------------------------------|
D|-4--4--4--4--4--4--2--2--2--2--2--2--2--2--7--7--7--7--7--7--7--7--7--7--|
A|-4--4--4--4--4--4--2--2--2--2--2--2--2--2--7--7--7--7--7--7--7--7--5--5--|
E|-2--2--2--2--2--2--0--0--0--0--0--0--0--0--5--5--5--5--5--5--5--5--3--3--|

e|-------------------------------------------------------------------------|
B|-------------------------------------------------------------------------|
G|-------------------------------------------------------------------------|
D|-7--7--7--7--7--7--7--7--7--7--7--7--7--7--\--3--3--3--3--3--3--3--3--/--|
A|-5--5--5--5--5--5--7--7--7--7--7--7--7--7--\--3--3--3--3--3--3--3--3--/--|
E|-3--3--3--2--3--2--5--5--5--5--5--5--5--5--\--1--1--1--1--1--1--1--1--/--|

e|-------------------------------------------------------------------------|
B|-------------------------------------------------------------------------|
G|----------------------------------------------------7--7--7--7--7--7--7--|
D|-7--7--7--7--7--7--7--7--\--3--3--3--3--3--3--3--3--7--7--7--7--7--7--7--|
A|-7--7--7--7--7--7--7--7--\--3--3--3--3--3--3--3--3--5--5--5--5--5--5--5--|
E|-5--5--5--5--5--5--5--5--\--1--1--1--1--1--1--1--1--5--5--5--5--5--5--5--|

e|-------------------------------------------------------------------------|
B|-------------------------------------------------------------------------|
G|-7--------------------------7--7--7--7--7--7--7--7-----------------------|
D|-7--3--3--3--3--3--3--3--3--7--7--7--7--7--7--7--7--3--3--3--3--3--5--5--|
A|-7--3--3--3--3--3--3--3--3--5--5--5--5--5--5--5--5--3--3--3--3--3--5--5--|
E|-5--1--1--1--1--1--1--1--1--5--5--5--5--5--5--5--5--1--1--1--1--1--3--3--|

e|-------------------------------------------------------------------------|
B|-------------------------------------------------------------------------|
G|-------------------------------------------------------------------------|
D|-5--7--7--7--7--7--7--7--7--\--3--3--3--3--3--3--3--3--/--7--7--7--7--7--|
A|-5--7--7--7--7--7--7--7--7--\--3--3--3--3--3--3--3--3--/--7--7--7--7--7--|
E|-3--5--5--5--5--5--5--5--5--\--1--1--1--1--1--1--1--1--/--5--5--5--5--5--|

e|-------------------------------------------------------------------------|
B|-------------------------------------------------------------------------|
G|-------------------------------------7--7--7--7--7--7--7--7--------------|
D|-7--7--7--\--3--3--3--3--3--3--3--3--7--7--7--7--7--7--7--7--3--3--3--3--|
A|-7--7--7--\--3--3--3--3--3--3--3--3--5--5--5--5--5--5--5--5--3--3--3--3--|
E|-5--5--5--\--1--1--1--1--1--1--1--1--5--5--5--5--5--5--5--5--1--1--1--1--|

e|-------------------------------------------------------------------------|
B|-------------------------------------------------------------------------|
G|-------------7--7--7--7--7--7--7--7--------------------------------------|
D|-3--3--3--3--7--7--7--7--7--7--7--7--3--3--3--3--3--5--5--5--4--4--4--4--|
A|-3--3--3--3--5--5--5--5--5--5--5--5--3--3--3--3--3--5--5--5--4--4--4--4--|
E|-1--1--1--1--5--5--5--5--5--5--5--5--1--1--1--1--1--3--3--3--2--2--2--2--|

e|-------------------------------------------------------------------------|
B|-------------------------------------------------------------------------|
G|-------------------------------------------------------------7--7--7--7--|
D|-4--4--4--4--6--6--6--6--6--6--6--6--7--7--7--7--7--7--7--7--7--7--7--7--|
A|-4--4--4--4--6--6--6--6--6--6--6--6--7--7--7--7--7--7--7--7--5--5--5--5--|
E|-2--2--2--2--4--4--4--4--4--4--4--4--5--5--5--5--5--5--5--5--5--5--5--5--|

e|-------------------------------------------------------------------------|
B|-------------------------------------------------------------------------|
G|-7--6--7-----------------------------------------------------------------|
D|-7--6--7--7--4--4--4--4--4--4--4--4--2--2--2--2--2--2--2--2--7--7--7--7--|
A|-5--4--5--7--4--4--4--4--4--4--4--4--2--2--2--2--2--2--2--2--7--7--7--7--|
E|-5--4--5--5--2--2--2--2--2--2--2--2--0--0--0--0--0--0--0--0--5--5--5--5--|

e|-------------------------------------------------------------------------|
B|-------------------------------------------------------------------------|
G|-------------------------------------------------------------------------|
D|-7--7--7--7--7--7--7--7--7--7--7--7--4--4--4--4--4--4--4--4--6--6--6--6--|
A|-7--7--7--7--5--5--5--5--5--5--5--5--4--4--4--4--4--4--4--4--6--6--6--6--|
E|-5--5--5--5--3--3--3--3--3--3--3--3--2--2--2--2--2--2--2--2--4--4--4--4--|

e|-------------------------------------------------------------------------|
B|-------------------------------------------------------------------------|
G|-------------------------------------7--7--7--7--7--6--7-----------------|
D|-6--6--6--6--7--7--7--7--7--7--7--7--7--7--7--7--7--6--7--7--4--4--4--4--|
A|-6--6--6--6--7--7--7--7--7--7--7--7--5--5--5--5--5--4--5--7--4--4--4--2--|
E|-4--4--4--4--5--5--5--5--5--5--5--5--5--5--5--5--5--4--5--5--2--2--2--2--|

e|-------------------------------------------------------------------------|
B|-------------------------------------------------------------------------|
G|-------------------------------------------------------------------------|
D|-4--4--4--4--2--2--2--2--2--2--2--2--7--7--7--7--7--7--7--7--7--7--7--7--|
A|-4--4--4--4--2--2--2--2--2--2--2--2--7--7--7--5--7--7--7--7--5--5--5--5--|
E|-2--2--2--2--0--0--0--0--0--0--0--0--5--5--5--5--5--5--5--5--3--3--3--3--|

e|--------------|
B|--------------|
G|--------------|
D|--7--7--7--7--|
A|--5--5--5--5--|
E|--3--2--3--2--|

~~Interlude between 3:02 and 3:54~~


Section 2

e|---------------------------------------------------------|
B|---------------------------------------------------------|
G|--------------2b------2b-----2b-----2--4--2--4--2--4--2--|
D|-----------4------2h3-------------0----------------------|
A|-------------------------3-------------------------------|
E|--5--\--2------------------------------------------------|

e|-----------------------------------------------|   \
B|-----------------------------------------------|   |
G|----2b------2b-----2b-----2--4--2--4--2--4--2--|  x7
D|--4-----2h3------------0-----------------------|   |
A|----------------3------------------------------|   |
E|-----------------------------------------------|   /

e|-------------------------------------------------------------------------|
B|-------------------------------------------------------------------------|
G|-------------------------------------------------------------------------|
D|-7--7--7--7--7--7--7--7--\--3--3--3--3--3--3--3--3--/--7--7--7--7--7--7--|
A|-7--7--7--7--7--7--7--7--\--3--3--3--3--3--3--3--3--/--7--7--7--7--7--7--|
E|-5--5--5--5--5--5--5--5--\--1--1--1--1--1--1--1--1--/--5--5--5--5--5--5--|

e|-------------------------------------5-----------------------5------1----|
B|----------------------------------------5-----------1-----------5---1----|
G|----------------------------------7--------------------2--7---------2----|
D|-7--7--\--3--3--3--3--3--3--3--3--7------------3----------7---------3----|
A|-7--7--\--3--3--3--3--3--3--3--3--5----------3---3--------5---------3----|
E|-5--5--\--1--1--1--1--1--1--1--1--5--------1--------------5---------1----|




| /  slide up
| \  slide down
| h  hammer-on
| p  pull-off
| ~  vibrato
| +  harmonic
| x  Mute note
============================================================================
Добавлено: 17.05.2012
Другие материалы по этой песне:
  • Аккорды и текст

Страница создана 27.03.2012
http://primanota.ru/ben-kenney/423-chords.htm
Привет, Гость.
Предлагаем пройти революционный курс по гитаре.
Подарок от PrimaNota.Ru, забирай!