PrimaNota.ru - самый крупный в мире бесплатный архив песенных текстов, аккордов, табулатур и нот


Ben Howard - Soldiers - текст песни, таба, видео

Регистрация Запомнить меня
Войти через:  Facebook Google Twitter Vk Yandex Mail.ru

Ben Howard - Soldiers - текст песни, таба, видео

Печатать
Просмотров: 321
Its my first tab, so go easy on me. I got asked to make this
by SKINNYFMX on youtube
This is a bit of a weird tuning, but its fine. D A D G A E

Intro
E||--------------------------|------------------------------|
A||-------3-----3------3-----|-------3-----3-----3-----3----|
G||---------0-0---0------0---|---------0-----0-----0-----0--|
D||--------------------------|------------------------------|
A||-----3------------3-------|------------------------------|
D||--------------------------|-----3-----3-----3-----3------|

Verses
You can just strum it or play a
E||--------------------------x2||------------------------------|
A||-----3--8--7--5--7--3-----  ||-----3-----3-----3-----3------|
G||-----0--0--0--0--0--0-----  ||-----0-----0-----0-----0------|
D||-----0--0--0--0--0--0-----  ||-----0-----0-----0-----0------|
A||-----3--8--7--5--7--3-----  ||-----0-----0-----0-----0------|
D||--------------------------  ||-----3-----3-----3-----3------| 

Chorus
Let it ring
E||--------------------------x3||------------------------------|
A||-----0-----------2--------  ||-----3--3-----3--3------------|
G||-----0-----------0--------  ||-----0--0-----0--0------------|
D||-----0-----------0--------  ||-----0--0-----0--0------------|
A||-----0--------------------  ||------------------------------|
D||-----7-----------5--------  ||-----3--3-----3--3------------|

That's about it. As far as the structure goes:

Intro
Verse
Chorus
Verse
Chorus
Outro

For the outro, just play a few variations on the verse.
Добавлено: 15.06.2012
Другие материалы по этой песне:
  • Аккорды и текст

Страница создана 15.06.2012
http://primanota.ru/ben-howard/soldiers-chords.htm
Привет, Гость.
Предлагаем пройти революционный курс по гитаре.
Подарок от PrimaNota.Ru, забирай!