PrimaNota.ru - самый крупный в мире бесплатный архив песенных текстов, аккордов, табулатур и нот


Ben Harper - You Found Another Lover I Lost Another Friend - таба, видео

Регистрация Запомнить меня
Войти через:  Facebook Google Twitter Vk Yandex Mail.ru

Ben Harper - You Found Another Lover I Lost Another Friend - таба, видео

Печатать
Просмотров: 86
I tabbed this after seeing the performance on Jimmy Kimmel Live. Real simple song.
Check out the video -- http://www.youtube.com/watch?v=MdeZz0IJrcg


Chords Used:

       A    Bmin   G   F#/Gb   D

E|-----------2-----3-----2-----2-----|
B|-----2-----3-----3-----2-----3-----|
G|-----2-----4-----4-----3-----2-----|
D|-----2-----4-----5-----4-----0-----|
A|-----0-----2-----5-----4-----------|
E|-----------------3-----2-----------|


Verse

E|-------------------------------2----3----2-------|
B|---------------2---------------3----3----2----2--|
G|---------------2---------------4----4----3----2--|  2x
D|---------------2---------------4----5----4----2--|
A|-----0h2p0---0-0----2\4-2\4--2-2----5----4----0--|
E|-0h2-------3------------------------3----2-------|


Chorus

E|-------------------------------2----2----2-------|
B|---------------2---------------3----3----3----2--|
G|---------------2---------------4----2----4----2--|  2x
D|---------------2---------------4----0----4----2--|
A|-----0h2p0---0-0----2\4-2\4--2-2---------2----0--|
E|-0h2-------3-------------------------------------|


Follow the song for the strumming pattern on the chords. At the end of the chorus, Ben 
repeats the D-Bmin chord sequence before going back to the A and starting this whole riff 
over for the next verse.
Добавлено: 13.08.2013
Другие материалы по этой песне:
  • Аккорды и текст

Страница создана 20.07.2013
http://primanota.ru/ben-harper/you-found-another-lover-i-lost-another-friend-chords.htm
Привет, Гость.
Предлагаем пройти революционный курс по гитаре.
Подарок от PrimaNota.Ru, забирай!