PrimaNota.ru - самый крупный в мире бесплатный архив песенных текстов, аккордов, табулатур и нот


Ben Harper - Where Could I Go (feat. The Blind Boys Of Alabama) - текст песни, таба, видео

Регистрация Запомнить меня
Войти через:  Facebook Google Twitter Vk Yandex Mail.ru

Ben Harper - Where Could I Go (feat. The Blind Boys Of Alabama) - текст песни, таба, видео

Печатать
Просмотров: 174
Авторы музыки: Ben Harper, Marc Ford, Jason Yates

Artist: Ben Harper
Track: Where could I go
Album: There will be a light(with blind boys of alabama)
Tabbed by alexPP: alessandro15@hotmail.fr


INTRO(piano)

e|-5-4-3-1----1-----1--0--------1-----------------------------------------------------------------|
B|-----------1-1---1-----4-3---3-3---3--2-------3----------5---------6-----6----------------------|
G|----------2---2-2-----------2---2-2-----5-3--3-3--------5-5-------7-7---7-7---------------------|
D|---------------3-----------------0----------3---3------5---5-----7---7-7---7--------------------|
A|-------------------------------------------------1-2-3------3-4-5-----5-------------------------|
E|------------------------------------------------------------------------------------------------|

Verse
         F              Dm          Bb        C           Dm7
e|----1-----1--------1-----1----------------------------------------------------------------------|
B|---1-1---1-1------3-3---3-3-------3---------5--------6-----6------------------------------------|
G|--2---2-2---2----2---2-2---2-----3-3-------5-5------7-7---7-7-----------------------------------|
D|-3-----3--------0-----0---------3---3-----5---5----7---7-7---7----------------------------------|
A|-------------------------------1---------3--------5-----5---------------------------------------|
E|------------------------------------------------------------------------------------------------|

Chords:

   F  Dm  Bb  C   Dm7   C#
e|-1--1------------5--------|
B|-1--3---3---5----6----6---|
G|-2--2---3---5----7----6---|
D|-3--0---3---5----7----6---|
A|-3------1---3----5----4---|
E|-1------------------------|

             F                         Dm
There's no deals to be made with the dawn
        Bb            C                Dm7
Now I fear that our time has come and gone

Bb        C#                F
They say freedom is just a place to hide
Bb             C#             Dm7         Bb
Now I'm coming to you with my arms open wide
(Oh - won't you tell me)
               C
Where could I go to the Lord


           F                         Dm
Take a prayer with you to heaven for me
                        Bb           C
Oh - And give it to the Lord
               Dm7
Give it to the Lord
              F
Cause nothing else could save a sinner
             Dm
Sinner like me
                 Bb              C
Oh - But an angel's word
                  Dm7
Just an angel's word

     Bb                       C#
Now - Oh now - what is - what is too true
                      F
What is hard is much too true
Bb                 C#      Dm7             Bb
Oh - and what's true Oh - is much too too hard
                               C
And now where - where could I go but to the Lord


Mama was hard on us but we could take it
And papa didn't give a damn and he couldn't fake it

They say freedom
Oh - Freedom is just an other place to hide
Now I'm coming to you with my arms open wide
(And tell me)
Where could I go - Oh - but to the Lord
Добавлено: 02.05.2012
Другие материалы по этой песне:
  • Аккорды и текст

Страница создана 23.03.2012
http://primanota.ru/ben-harper/where-could-i-go-chords.htm
Привет, Гость.
Предлагаем пройти революционный курс по гитаре.
Подарок от PrimaNota.Ru, забирай!